» » »

Verve - Drug Dont Work Tabs

Artists:  A B C D E F G H I J K L M N O P Q R S T U V W X Y Z # 

Drug Dont Work Tabs

(ver. 3) Click to play this song!
Verve
 Rating:
4/5 (4 votes)

 Drug Dont Work lessons Tabs too difficult? Try these video lessons and learn fast
 
                -----3---|-----3---|-----3---|-----3---|-----0---|---------|---------|--------
---------|---------|---------|---------|---------|-0-----1-|-----1---|-0------
-------0-|-------0-|-------0-|-------0-|---2-----|---------|---------|--------
---2-----|---2-----|---2-----|---2-----|-2-----2-|---2-2---|-2-2---2-|---2-2--
-3-------|-3-------|-3-------|-3-------|---------|---------|---------|--------
---------|---------|---------|---------|---------|---------|---------|--------
 Intro:                                                                       

---|---------|-0-------|---------|---------|---------|---------|---------|----
---|---------|---0-----|-----1---|-----1---|---------|---------|---------|----
---|---------|---------|-------0-|-------0-|---------|---------|---------|----
-0-|-2-2---2-|-------0-|-3-3-----|---------|---------|---------|---------|----
---|---------|---------|---------|---------|-3-------|---------|-3-------|----
---|-0-------|---------|---------|-3-3-----|---------|---3---3-|---------|----
            
Submit corrections


        Drug Dont Work lessons Hard to play? Try these video lessons and learn fast Drug Dont Work lessons
        
↑ Back to top | Tablatures and chords for acoustic guitar and electric guitar, ukulele, drums are parodies/interpretations of the original songs. You may use it for private study, scholarship, research or language learning purposes only