» » »

Versaemerge - The Authors Tabs

Artists:  A B C D E F G H I J K L M N O P Q R S T U V W X Y Z # 

The Authors Tabs

(ver. 1) Click to play this song!
Versaemerge
 Rating:
3.7/5 (6 votes)


 The Authors lessons Tabs too difficult? Try these video lessons and learn fast
 
                I tried finding tabs for this song, but they were all wrong. 
I did this by ear. Some parts aren't perfect. 
Give me credit, PLEASE or at least tell where you're going to use it.. 
I worked hard for this. Figure out the strumming. 
They're not that hard.
(THIS IS ALL I HAVE RIGHT NOW. THE REST WILL BE ADDED LATER)

Intro:
e|-x-------------------------------------------------|
B|-x----------------------------------h6-------------|
G|-x-------------5-----------10-----x----------------|
D|-x---0-0--3-3--5--5--7h10--8---3--5----------------|
A|-x---0-0--3-3--3--5--7-----8---3--5----------------|
D|-x---0-0--3-3--0--5--7-----8---3--5----------------|


Verse: Same all over. Mess with the strumming and timing and whatnot.
You'll figure it out.
e|-x----------x---------------------------------------|
B|-x----------x----e----------------------------------|
G|-x-(2)--10--x----d-10-10----------------------------|
D|-x------8---x--3-i-8--8-----------------------------|
A|-x------8---x--3-l-8--8-----------------------------|
D|-x------8---x--3-s-8--8-----------------------------|


Pre-Chorus: Impact is up to us.. (This is palm muted)
* means short.
e|----------------|
B|------------*5--|
G|--3----5----*5--|
D|--3----5----*3--|
A|--1----3--------|
D|----------------|

Chorus: And it's all these days.. (Same as intro)
e|-x-------------------------------------------------|
B|-x----------------------------------h6-------------|
G|-x-------------5-----------10-----x----------------|
D|-x---0-0--3-3--5--5--7h10--8---3--5----------------|
A|-x---0-0--3-3--3--5--7-----8---3--5----------------|
D|-x---0-0--3-3--0--5--7-----8---3--5----------------|




 
/  slide up
 \  slide down
 h  hammer-on
 p  pull-off
 ~  vibrato
 +  harmonic
 x  Mute note
            
Submit corrections



        The Authors lessons Hard to play? Try these video lessons and learn fast The Authors lessons
        
↑ Back to top | Tablatures and chords for acoustic guitar and electric guitar, ukulele, drums are parodies/interpretations of the original songs. You may use it for private study, scholarship, research or language learning purposes only