» » »

Verbena - Shaped Like A Gun Tabs

Artists:  A B C D E F G H I J K L M N O P Q R S T U V W X Y Z # 

Shaped Like A Gun Tabs

(ver. 1) Click to play this song!
Verbena
 Rating:
4/5 (4 votes)
                dgdgbe tuning

bass intro: then 

verse
g---0--3-5-0-3-3---0-3-5-0-3-0-0
d---0--3-5-0-3-3---0-3-5-0-3-0-0
g-5-0--3-5-0-3-3---0-3-5-0-3-0-0
d-3-----------------------------

chorus
g-----------------------------
d-b5-3-5-b5-3-5--------0-3-0-0
g-b5-3-5-b5-3-5--5-5-5-0-3-0-0
d----------------3-3-3--------

bridge
g-0-0-0-3-5-0-3-5---0-3-5-10-10-10-5-5--0-3-5-0
d-0-0-0-3-5-0-3-5---0-3-5-10-10-10-5-5--0-3-5-0
g-0-0-0-3-5-0-3-5-5-0-3-5-10-10-10-5-5--0-3-5-0
d-----------------3----------------------------

outro; repeat  chorus
            
Submit corrections

↑ Back to top | Tablatures and chords for acoustic guitar and electric guitar, ukulele, drums are parodies/interpretations of the original songs. You may use it for private study, scholarship, research or language learning purposes only