» » »

Velvet Revolver - American Man Tabs

Artists:  A B C D E F G H I J K L M N O P Q R S T U V W X Y Z # 

American Man Tabs

(ver. 1) Click to play this song!
Velvet Revolver
 Rating:
4/5 (12 votes)

 American Man lessons Tabs too difficult? Try these video lessons and learn fast
 
                Hi guys, First tab :).
I think this tab is correct but not intierly sure.

s= Slide
~~= Vibrato
h= Hammer on
p= Pull off

Interlude:

E--------------------------------------------------------------------|
B--------------------------------------------------------------------|
G--------------------------------------------------------------------|
D--------------------------------------------------------------------|
A------------6-7--s9~~-----10~~--9--7s9s7--h9p7--6~~----------9---9--|
E---s7~~---7-----------7-------------------------------7s2---7--7----|



E------------------------------------------------------------------------|
B-------------------------------------------------------------------12~~-|
G-----------------------------------------------9--------12--11--9-------|
D--------------------------------11--9---12--11------11------------------|
A-6--7s9-----10b^---10~~---9--12-----------------------------------------|
E----------7-------------------------------------------------------------|
            
Submit corrections


        American Man lessons Hard to play? Try these video lessons and learn fast American Man lessons
        
↑ Back to top | Tablatures and chords for acoustic guitar and electric guitar, ukulele, drums are parodies/interpretations of the original songs. You may use it for private study, scholarship, research or language learning purposes only