Home » V » Veil Of Maya »

Veil Of Maya - The UprisingIntro Tabs

Artists:  A B C D E F G H I J K L M N O P Q R S T U V W X Y Z # 

The UprisingIntro Tabs

(ver. 1) Click to play this song!
Veil Of Maya
                          The Uprising
                          Veil of Maya
                       All Things Set Aside


Most Accurate tab on the net.
----------------------------------------------|
----------------------------------------------|
-14--14-14---14--14-14----15--15\14--14--14---|
--0---0--0----0---0--0-----0---0--0---0---0---|
-12--12-12---12--12-12----13--13\12--12--12---|
--0---0--0----0---0--0----10--10\10--10--10---|

----------------------------------|
----------------------------------|
--11-11--11\12--13--14--14--12----|
---0--0---0--0---0---0---0---0----|
---9--9---9\11--12--13--13--10--0-|
---0--0---0--0--10--10--10---0--0-|
                                .

-----------------------------------------|
-----------------------------------------|
-----------------------------------------|
----/12-13~-/17-16-16-17-19-20-17--------|
--5-------------------------------0------|
----------------------------------0------|
                                  .

----------------------------------------------|
----------------------------------------------|
-14--14-14---14--14-14----15--15\14--14--14---|
--0---0--0----0---0--0-----0---0--0---0---0---|
-12--12-12---12--12-12----13--13\12--12--12---|
--0---0--0----0---0--0----10--10\10--10--10---|

-------------------------------------|
-------------------------------------|
-11-11---11\12---14--15--15--11-11-11|
--0--0----0--0----0---0---0---0--0--0|
--9--9----9\10---12--13--13---9--9--9|
--0--0----0--0---10--10--10---0--0--0|

Theres two guitar parts right here.
gt.1
----------------------------------------------|
----------------------------------------------|
-14--14-14---14--14-14----15--15\14--14--14---|
--0---0--0----0---0--0-----0---0--0---0---0---|
-12--12-12---12--12-12----13--13\12--12--12---|
--0---0--0----0---0--0----10--10\10--10--10---|

-------------------------------------|
-------------------------------------|
-11-11---11\12---14--15--15-11-11-11-|
--0--0----0--0----0---0---0--0--0--0-|
--9--9----9\10---12--13--13--9--9--9-|
--0--0----0--0---10--10--10--0--0--0-|

gt.2
----------------------------------------------|
----------------------------------------------|
-14--14-14---14--14-14----15--15\14--14--14---|
--0---0--0----0---0--0-----0---0--0---0---0---|
-12--12-12---12--12-12----13--13\12--12--12---|
--0---0--0----0---0--0----10--10\10--10--10---|

---------------------------------------|
---------------------------------------|
--14-14--14-14-17---19-19-19--15-15-15-|
---0--0---0--0--0----0--0--0---0--0--0-|
--12-12--12-13-15---17-17-17--13-13-13-|
---0--0---0--0--0----0--0--0---0--0--0-|

-----------------------------------------|
------------------------------6-----9----|
----------------------------9---9---6----|
------5*--5*-----------------------------|
--0--5*----5*---000-0-00-0-0-------0-----|
--0-5*------5*--000-0-00-0-0-------0-----|

----------------------------13-12-------17------|
----------------------------------13------------|
-------------------------------------14---------|
-------5*--5*-----------------------------------|
--0---5*----5*---000-0-00-0-0-------------------|
--0--5*------5*--000-0-00-0-0-------------------|x2


---------|------------------------------------------------------------|
---------|---------------------------------------------------------6--|
--2b-----|-------------------------------------------------------9----|
-------3-|-2-------------------2---------------3------2---------------|
-----0-1-|-0--0--2--3--000000--0--0--2--3--00--1--00--0--0--2--3------|
-----0---|----0--2--3--000000-----0--2--3--00-----00-----0--2--3------|

----------------------|
----------------------|
----------------------|
--2---------------3---|
--0--0--2--3--00--1---|
-----0--2--3--00------|

--------------------------------------------------------------------|
---------------------------------------------------------6-----6----|
-------------------------------------------------------9-----9---9\-|
-2-------------------2---------------3------2-----------------------|
-0--0--2--3--000000--0--0--2--3--00--1--00--0--0--2--3--------------|
----0--2--3--000000-----0--2--3--00-----00-----0--2--3--------------|

--------------------------------------------------------------------|
--------------------------------------------------------------------|
--------------------------------------------------------------------|
--------------------------------------------------------------------|
--000-0000-00-00-000-00-00-000-00-0000-00-00-0000-00-00-000000-00---|
--000-0000-00-00-000-00-00-000-00-0000-00-00-0000-00-00-000000-00---|

also two guitar parts
gt.1
--------------------------------------------------------------|
--------------------------------------------------------------|
--------------------------------------------------------------|
--------------------------------------------------------------|
--00-0000-00-00-000-00-00-000-00-000-00-00-0000-00-00-000000--|
--00-0000-00-00-000-00-00-000-00-000-00-00-0000-00-00-000000--|x2

--------------------------------------------------------------------|
--------------------------------------------------------------------|
--------------------------------------------------------------------|
----------------------------------------------------------------7~--|
--00-0000-00-00-000-00-00-000-00-000-00-00-0000-00-00-0000000-0-5~--|
--00-0000-00-00-000-00-00-000-00-000-00-00-0000-00-00-0000000-0-0~--|

gt.2
--------------------------------------------------------------|
--------------------------------------------------------------|
--------------------------------------------------------------|
--------------------------------------------------------------|
--00-0000-00-00-000-00-00-000-00-000-00-00-0000-00-00-000000--|
--00-0000-00-00-000-00-00-000-00-000-00-00-0000-00-00-000000--|

----------------------------------|
--15t-17t-14t-18t-15t-17t-14t-17t-|
----------------------------------|
----------------------------------|
----------------------------------|
----------------------------------|

------|
------|
------|
--7~--|
--5~--|
--0~--|

There you go.
comment rate.
            
Submit corrections

↑ Back to top | Tablatures and chords for acoustic guitar and electric guitar, ukulele, drums are parodies/interpretations of the original songs. You may use it for private study, scholarship, research or language learning purposes only