Home » V » Veil Of Maya »

Veil Of Maya - Teleute Tabs

Artists:  A B C D E F G H I J K L M N O P Q R S T U V W X Y Z # 

Teleute Tabs

(ver. 1) Click to play this song!
Veil Of Maya
Tuning: Drop B



C#|----------------------|----------------------|----------------------|
G#|----------------------|----------------------|----------------------|
E |--1-------------------|--1--------4----------|--9-------------------|
B |-----------1--2--1----|----------------------|-----------9--10-9----|
F#|-----2----------------|-----2--------7-------|-----10---------------|
B |--------2-------------|--------2--------6----|--------10------------|


-------------------------------------|----------------------|
-------------------------------------|----------------------|
--5-----------------4----------------|--1-------------------|
-------------------------------------|-----------1--2--1----|
--------7----------------------------|-----2----------------|
--------------7----------------------|--------2-------------|


----------------------|----------------------|----------------------|
----------------------|----------------------|----------------------|
--1--------4----------|--5-------------------|--9-------------------|
----------------------|-----------6--7--6----|-----------9--10-9----|
-----2--------7-------|-----7----------------|-----10---------------|
--------2--------6----|--------7-------------|--------10------------|


----------------------|----------------------|----------------------|
----------------------|----------------------|----------------------|
--4-------------------|--1--------4----------|--9-------------------|
-----------1--2--1----|----------------------|-----------9--10-9----|
-----7----------------|-----2--------7-------|-----10---------------|
--------6-------------|--------2--------6----|--------10------------|


----------------------|----------------------|----------------------|
----------------------|----------------------|----------------------|
--5-------------------|--1-------------------|--1--------4----------|
-----------6--7--6----|-----------1--2--1----|----------------------|
-----7----------------|-----2----------------|-----2--------7-------|
--------7-------------|--------2-------------|--------2--------6----|


----------------------|----------------------|----------------------|
----------------------|----------------------|----------------------|
--9-------------------|--2-------------------|--4-------------------|
-----------9--10-9----|-----------2--3--2----|-----------1--2--1----|
-----10---------------|-----3----------------|-----7----------------|
--------10------------|--------3-------------|--------6-------------|


----------------------|----------------------|----------------------|
----------------------|----------------------|----------------------|
--1--------4----------|--9-------------------|--5-------------------|
----------------------|-----------9--10-9----|-----------6--7--6----|
-----2--------7-------|-----10---------------|-----7----------------|
--------2--------6----|--------10------------|--------7-------------|


----------------------|----------------------|----------------------|
----------------------|----------------------|----------------------|
--1-------------------|--1--------4----------|--9-------------------|
-----------1--2--1----|----------------------|-----------9--10-9----|
-----2----------------|-----2--------7-------|-----10---------------|
--------2-------------|--------2--------6----|--------10------------|


----------------------|----------------------|----------------------|
----------------------|----------------------|----------------------|
--5-------------------|--4-------------------|--1--------4----------|
-----------6--7--6----|-----------1--2--1----|----------------------|
-----7----------------|-----7----------------|-----2--------7-------|
--------7-------------|--------6-------------|--------2--------6----|


----------------------|----------------------|----------------------|
----------------------|----------------------|----------------------|
--5-------------------|--2-------------------|--1-------------------|
-----------6--7--6----|-----------2--3--2----|-----------1--2--1----|
-----7----------------|-----3----------------|-----2----------------|
--------7-------------|--------3-------------|--------2-------------|


----------------------|----------------------|----------------------|
----------------------|----------------------|----------------------|
--1--------4----------|--9-------------------|--5-------------------|
----------------------|-----------9--10-9----|-----------6--7--6----|
-----2--------7-------|-----10---------------|-----7----------------|
--------2--------6----|--------10------------|--------7-------------|


----------------------|----------------------|----------------------|
----------------------|----------------------|----------------------|
--4-------------------|--1--------4----------|--5-------------------|
-----------1--2--1----|----------------------|-----------6--7--6----|
-----7----------------|-----2--------7-------|-----7----------------|
--------6-------------|--------2--------6----|--------7-------------|


----------------------||
----------------------||
--2-------------------||
-----------2--3--2----||
-----3----------------||
--------3-------------||
            
Submit corrections

↑ Back to top | Tablatures and chords for acoustic guitar and electric guitar, ukulele, drums are parodies/interpretations of the original songs. You may use it for private study, scholarship, research or language learning purposes only