» » »

Vaya Con Dios - Nah Neh Nah Tabs

Artists:  A B C D E F G H I J K L M N O P Q R S T U V W X Y Z # 

Nah Neh Nah Tabs

(ver. 2) Click to play this song!
Vaya Con Dios
 Rating:
4.4/5 (11 votes)

 Nah Neh Nah lessons Tabs too difficult? Try these video lessons and learn fast
 
                [Intro]

e|-----------------------------------------------------------------------------|
B|-----------------------------------------------------------------------------|
G|-----------------------------------------------------------------------------|
D|--4--4--4--3---4/-6/7--7--7--6---7/-9/11-12-11-10-11-------------------------|
A|-----------------------------------------------------12-11-9--12-11-11-10-11-|
E|-----------------------------------------------------------------------------|

(e.g. this part originally starts on the 12th fret on the b string)
e|--7---7p-6p-5p4-----------------------------------|
B|-----------------7--6-----------------------------|
G|-----------------------7--6--5--6-----------------|
D|-----------------------------------7--6--4--3--6--|
A|--------------------------------------------------|
E|--------------------------------------------------|

e|-----------------------------------------------------------------------|
B|-----------------------------------------------------------------------|
G|-----------------------------------------------------------------------|
D|--4--4--4--3---4/-6/7--7--7--6---7/-9/11-10-11-12-11-10-11-9--9--8--9--|
A|-----------------------------------------------------------------------|
E|-----------------------------------------------------------------------|

e|--9--10-9--10-9--7--------7-----------------------------------|
B|--------------------10-9-----10-9--7--6-----------------------|
G|-----------------------------------------7--6--5--6-----------|
D|-----------------------------------------------------7--6--4--|
A|--------------------------------------------------------------|
E|--------------------------------------------------------------|


[Right after first Verse (0:48)] 

e|---9h10p-9p7--------7-----------------------------------|
B|--------------10-9-----10-9--7--6-----------------------|
G|-----------------------------------7--6--5--6-----------|
D|-----------------------------------------------7--6--4--|
A|--------------------------------------------------------|
E|--------------------------------------------------------|


[End of second Verse (1:13)]

e|-----------------------------------------------2--4--5--|
B|--------------------------------------2--4--5-----------|
G|--------------------------1--2--3--4--------------------|
D|-----------------1--2--4--------------------------------|
A|--------1--2--4-----------------------------------------|
E|--2--4--------------------------------------------------|


e|--4--5--7-----1--2--4--------------------------------------|
B|--------------------------0--2--3--------------------------|
G|--------------------------------------1--2--4--------------|
D|--------------------------------------------------3--4--6--|
A|-----------------------------------------------------------|
E|-----------------------------------------------------------|

e|-----------------|
B|-----------------|
G|-----------------|
D|-----0--1--3--4--|
A|--4--------------|
E|-----------------|


[Solo (1:20)]

e|-----------------------------------------------------------------------|
B|-----------------------------------------------------------------------|
G|-----------------------------------------------------------------------|
D|--4--4--4--3---4/-6/7--7--7--6---7/-9/11-10-11-12-11-10-11-9--9--8--9--|
A|-----------------------------------------------------------------------|
E|-----------------------------------------------------------------------|

e|-----------------9--10-9-----------------------|
B|--------------9-----------12-10-9--------9-----|
G|-----------10----------------------11-10-------|
D|--9--10-11----------------------------------11-|
A|-----------------------------------------------|
E|-----------------------------------------------|

e|--------------------------------------------7--8v----------------------|
B|---9b10--9b10--9b10-------------9--10-9--10----------10-10-9--9--8--9--|
G|-----------------------11-10-11----------------------------------------|
D|-----------------------------------------------------------------------|
A|-----------------------------------------------------------------------|
E|-----------------------------------------------------------------------|

e|-----------------------------------------------------------|
B|--6--7--9--------------------------------------------------|
G|--------------4--6--7-----------5--------------------------|
D|--------------------------6--------7---6h-7p6--4--3--6-----|
A|--------------------------------------------------------3--|
E|-----------------------------------------------------------|

e|--------------------------------7--10-9------7h-9p7------4h-7p4--|
B|--------------------------6--9-----------------------------------|
G|--------------------4--7-----------------------------------------|
D|--------------3--6-----------------------------------------------|
A|--5--4--3--4-----------------------------------------------------|
E|-----------------------------------------------------------------|

e|--------------------------------------------------------2--3--4---5/-6/7--|
B|--------------------------------------------2--4---5/6--------------------|
G|--------------------------------1--2--3--4--------------------------------|
D|-----------------------1--2--4--------------------------------------------|
A|--------------1--2--4-----------------------------------------------------|
E|--2--0--2--4--------------------------------------------------------------|
    ^this should be an Eb, but I don't care to tune it down, so I play F# instead

e|--9--8--7-----------------------------------------------------------5--4--|
B|-----------10-7-----------------------------------------------0--3--------|
G|-----------------8-----------------------------------------2--------------|
D|--------------------9--8--7--6--9-----3--6-----------0--3-----------------|
A|--------------------------------------------4-----2-----------------------|
E|--------------------------------------------------------------------------|


[End of third Verse (2:12)]

e|--------------------------------------9--7--|
B|--------------------------7--8--9--10-------|
G|--------------------------------------------|
D|--------------6--7--8--9--------------------|
A|--------6--7--------------------------------|
E|--6--7--------------------------------------|

(^After this one follow some barely audible notes... Couldn't figure them out, something b-ish i think) 

e|--------------------------------------------------------------------9--7--5--4--2--|
B|--------------------------------------------------6-----6--9--6--9-----------------|
G|--------------------------4--4--4--4--7--7--7--7-----------------------------------|
D|--3--3--3--3--6--6--6--6-----------------------------------------------------------|
A|-----------------------------------------------------------------------------------|
E|-----------------------------------------------------------------------------------|

            
Submit corrections


        Nah Neh Nah lessons Hard to play? Try these video lessons and learn fast Nah Neh Nah lessons
        
↑ Back to top | Tablatures and chords for acoustic guitar and electric guitar, ukulele, drums are parodies/interpretations of the original songs. You may use it for private study, scholarship, research or language learning purposes only