» » »

Vaughan Stevie Ray - Couldn't Stand The Weather Bass

Artists:  A B C D E F G H I J K L M N O P Q R S T U V W X Y Z # 

Couldn't Stand The Weather Bass

(ver. 2) Click to play this song!
Vaughan Stevie Ray
 Rating:
4/5 (4 votes)


 Couldn't Stand The Weather lessons Tabs too difficult? Try these video lessons and learn fast
 
                Stevie Ray Vaughan - Couldn't Stand the Weather
Metal Edge BBS (619)423-4970

-----------------9--7---------------------------
----------7-8-9--------7h9--7-----7-7------7----
----7-8-9---------------------------------------
-7-----------------------------5-------5-5---5--


------------------------------------------------
------------------5-5-5---5---------------------
------------------------5---5----5--------------
-5---3---3-3-3-3--------------3----3--3-3-3-----


---------------------
--------4-4----------
---------------------
-2---2-------2-2-2---


||----------------------------------------------
||o---------------------------------------------
||o--5-3-5------------------3--5--3--5----------
||----------1--3------4--5--------------2--3--4-


-------||
------o||
------o||
--5----||


------------------------------------------------
------------------------------------------------
-5--3--5------------------3---5--3--5-----------
------------1--3----4--5----------------2--3--4-


------------------------------------------------
------------------------------------------------
------5--3--5---------------------3--5--3--5----
-5----------------1--3------4--5----------------


------------------------------------------------
------------------------------------------------
--5-5-------------------------------------------
-------2----3----4----5-------------------------


   4x
||----------------------------------------------
||o---------------------------------------------
||o--5--3--5------------------3--5--3--5----5-5-
||--------------1---3---4--5--------------------


----------------------||
---------------------o||
---------------------o||
-2----3----4----5-----||


1st Verse

------------------------------------------------
-------------------------------------------4--4-
--5p0--5------------------------3--5p0--5-------
----------2---2--3--p0--4p0--5------------------


------------------------------------------------
--5---5-5--6-6-7-7---------4--4--5--5-5-5-------
---------------------5--5-----------------------
------------------------------------------------


------------------4-4-5--5-5-5-6-6-7------------
-6-6-6-6---7-7-7--------------------------------
--------------------------------------5--5p0----
----------------------------------------------2-


------------------------------------------------
------------------------------------------------
----------------4---5p0-5--------------------4--
-2-3--3-3-3-5--------------2--2-3p0--4p0--5-----


------------------------------------------------
--------4--4--5--5-5-5---6-6-7------------------
-5p0-5--------------------------5--5p0----------
---------------------------------------2---2--3-


------------------------------------------------
------------------------------------7-8-9----9--
-------------5-----5---5--7--8---9---------9---9
-3--3--4--5----7--------------------------------


------------------------------------------------
----------------------5---6---7-----------------
----------4--5--6--7-------------7---------2--3-
-7---5------------------------------5---3-------


------------------------------------------------
---------3---4---5----------------4------------4
-4---5--------------5---------------------------
-----------------------3---2-2-2--------2-2-2---

------------------------
---------4-----------4--
------------------------
-2-2-2-------2-2-2------


||----------------------------------------------
||o---------------------------------------------
||o--5-3-5---------------3--5-3-5---5-5---------
||-----------1--3----4-5-----------------2--3--4


-----------||
----------o||
-----5----o||
--5--------||


2nd verse

------------------------------------------------
---------------------------------4--4--5--5--5--5
-5-------------------4---5p0--5-----------------
----2---x-3p0--4--5-----------------------------

           ===============2x=============
------------------------------------------------
-6-6-7p0----------------------------------------
----------5--5-------------------------4--------
----------------2--2--3----3-3--4--5------------

                                 ======2x===
------------------------------------------------
---------4-4-5--5-5-5---6-6-7-7-------4-4-5-----
-5p0--5--------------------------5-5------------
------------------------------------------------

------------------------------------------------
-5-5-5-6-6-7-7----------------------------------
--------------------5-5p0-------------------5---
---------------------------2--2-3---3-3-4-5----7


------------------------------------------------
--------------7--8--9-----9---------------------
-5--5-7-8--9-----------9-----9----------0--4---5
--------------------------------7--5-5----------


------------------------------------------------
----------5---6---7-----------------------------
---6---7-------------7------------2---3---4---5-
------------------------5---3--3----------------


------------------------------------------------
--3--4--5---------------4---------4---------4---
----------5-------------------------------------
-------------3---2-2-2-----2-2-2-----2-2-2------


------------10\------------------
--------4------------------------
---------------------------------
-2-2-2-----------1-1-2--3--4--5--


Guitar Solo

------------------------------------------------
------------------------------------------------
-5--5p0----------------------4---5--5p0---------
---------2--2--3---4-4--5p0--------------2-0-3--


------------------------------------------------
---------------4-4-5--5-5--6-6-7--------4-4-4-4-
--------5-5-5---------------------5--5----------
-0-4-5------------------------------------------


------------------------------------------------
-5-5-5-5-6-6-7-7------4-4-4-5--5-5-5--6-7-------
-----------------5-5----------------------------
------------------------------------------------


------------------------------------------------
------------------------------------------------
-5--5p0-------------3p0-4--5-5--------------4---
---------2-0-3--x-5-------------2-2-3-x-4-5-----


------------------------------------------------
------------------------4-4-5--5-5-6-6-7--------
-5-5-------------4--5-5-------------------------
------3-1-3--4-5--------------------------------


------------------------------------------------
------4--4--5--5-5-5--6--7----------------------
-5-5------------------------5-5-5---------------
----------------------------------2-2-3--3-3-0-5


------------------------------------------------
------------------------------------------------
-5----5-5--------------4--5-5p0---------------4-
----------2-0-3--x-4-5----------2-0-3--x-4-5----


------------------------------------------------
----------------------------------------7-8-9---
--5p0-5--------------5-----5-5-7--8--9----------
--------2-2-3--x-4-5----7-----------------------


------------------------------------------------
----9---------------------------------5--6-7----
-9-----9-------------4--5--5--6--6-7---------7--
----------7--5--5--5---------------------------5


------------------------------------------------
---------------------3--4--5--------------------
---------2--3--4--5-----------5-----------------
--3--3---------------------------3--------------

 =======2x=========
------------------------------------------------
--------4---------4----------------------7--8--9
-------------------------------5-7-8--9---------
-2-2-2-----2-2-2-------7--7--7------------------


------------------------------------------------
-------------------------5---6--7---------------
-9-----------4--5--6--7------------7------------
---7--5-5-5---------------------------5---3--3--


------------------------------------------------
-------------3---4---5--------------------------
-2--3--4--5-------------5-----------------------
---------------------------3--------------------

----------------------
--------4---------4---
----------------------
-2-2-2-----2-2-2------


||----------------------------------------------
||o---------------------------------------------
||o--5--3--5-----------------3--5--3--5---------
||--------------1--3---4--5---------------------


----------------------------------||
---------------------------------o||4x
--5--5-----------------------5---o||
--------2---3---4---4--5--5-------||


------------------------------------------------
--------------------------3---------------------
--5--3--5-----------------------------5---------
-------------1---3------------------------------



Metal Edge BBS (619)423-4970  (San Diego, CA  USA)
Over 10,000 Guitar Tabs, pictures, construction docs, lessons,
interviews, sound files, lyrics, programs.
h = hammeron                          ps = pick scr*pe
p = pulloff                           % = repeat phrase
b = bend                              + natural harmonic
/\ = Slide
* = Artificial Harmonic
x = ghost note
tr = trill


Metal Edge (619)423-4970  Over 10,000 guitar/bass tabs
Over a Gig of music files of all sorts.
distro site, Digital Visions beta test site, Warlock WHQ
            
Submit corrections



        Couldn't Stand The Weather lessons Hard to play? Try these video lessons and learn fast Couldn't Stand The Weather lessons
        
↑ Back to top | Tablatures and chords for acoustic guitar and electric guitar, ukulele, drums are parodies/interpretations of the original songs. You may use it for private study, scholarship, research or language learning purposes only