Home » V » Various Artists »

Various Artists - Rock Mashup Tabs

Artists:  A B C D E F G H I J K L M N O P Q R S T U V W X Y Z # 

Rock Mashup Tabs
Version #1
Various Artists


Copy URL
intro- Lean On Me
e|---------------------------------------------------------------------------|
B|---------------------------------------------------------------------------|
G|---------------------------------------------------------------------------|
D|-----------0--2--3-----3--2--0----------0--2--2--0--------------0--2--3----|
A|---3----3-----------------------3----3---------------3------3--------------|
E|---------------------------------------------------------------------------|

e|---------------------------------------------------------------------------|
B|---------------------------------------------------------------------------|
G|---------------------------------------------------------------------------|
D|---3--2--0-----------0---2-------------------------------------------------|
A|------------3----3----------2--3-------------------------------------------|
E|---------------------------------------------------------------------------|

Let It Be

                      Am        C             F          C
               Let it be, let it be,  let it be, let it be
                C                G              F  C Dm C
                Whisper words of wisdom, let it be

All My Love

C
All of my Love 
G
All of my Love
Am
All of my Love to You
F
Dear
C
All of my Love 
G
All of my Love
Am
All of My Love to You 
F
Dear

Foreplay/Longtime

|--------|--------------------------------------------------------|
|--------|--------------------------------------------------------|
|--------|--------------------------------------------------------|
|--------|-3-5-6-5-3----------5-6-3-8-10---3-5-6---6---6---3------|
|-8-8-8--|-1-3-4-3-1---6-5-3--3-4-1-6--8---1-3-4-6-4-6-4-6-1-3-4--|
|-6-6-6--|-------------4-3-1---------------------4---4---4---1-2--|

|---------------------------------------------------------------|
|---------------------------------------------------------------|
|---------------------------------------------------------------|
|-6-8-10--3-5-6-----3-5-6-----3-5-6-----3-5-6----3-5-6-8-10--3--|
|-4-6--8--1-3-4--6--1-3-4--6--1-3-4--6--1-3-4-6--1-3-4-6--8--1--|
|----------------4---------4---------4--------4-----------------|

Iron Man- bridge

|----------------------------------------------------
|----------------------------------------------------
|----------------------------------------------------
|-9------------------7-------------------------------
|-7------------------5-------------------------------
|----------------------------------------------------
   Nobody wants him    he just stares at the -

|------------------------------------------------------
|------------------------------------------------------
|------------------------------------------------------
|---------------------7-8-9----------------------7-8-9-
|-9--9-------7--7-8-9--------9--9-------7--7-8-9-------
|-7--7--7-10-----------------7--7--7-10----------------
world

Walk this Way solo ("Just gimme a kiss"):
                          hold--
E-11hb--------8h11p8----8-----------8------------------------------------|
B--------------------11---11fb--r11---11-8-------------------------------|
D------------------------------------------11p10p8-10----10-10fb---8~----|
G-----------------------------------------------------10-----------------|
A------------------------------------------------------------------------|
E------------------------------------------------------------------------|
  .  hold--                                             hold--
E----------------------------------|--------------------------------------|
B----10hb--r10-8----8--------------|--------------------11fb--r11---------|
D----------------10---11p10p8-10p8-| 10p8-11p10p8-10p8--------------7~----|
G-10-------------------------------|--------------------------------------|
A----------------------------------|--------------------------------------|
E----------------------------------|--------------------------------------|

(Dani)- Wake Me Up When September Ends Intro-

{Intro (acoustic Danielle while M sets up)
{e| |----------------|----------------|----------------|----------------|
{B| |----3-----3-----|----3-----3-----|----3-----3-----|----3-----3-----|
{G| |--0-----0-------|--0-----0-------|--0-----0-------|--0-----0-------|
{D| |5-----5---------|5-----5---------|5-----5---------|5-----5---------|
{A| |----------------|----------------|----------------|----------------|
{E| |----------------|----------------|----------------|----------------|\

Barracuda (M)

|-------------------------------------------------------------------------|
|-------------------------------------------------------------12----------|
|-------------------------------------------------------------12-<12>~~---| (harmonic)
|---------------------------------------------------------4-5-------------|
|----2----2-2-2---2-2-2---2-2-2---2-2-2---2-2-2---2-2-2---4-5-------------|
|----0----0-0-0---0-0-0---0-0-0---0-0-0---0-0-0---0-0-0---2-3-------------|

Smells Like Teen Spirit

Chorus: 

E
With the lights out
A         G
It's less dangerous
C        E
Here we are now
A       G
Entertain us
C      E
I feel stupid
A       G
And contagious
C        E
Here we are now
A       G
Entertain us
C    E
A milato
A     G
An albino
C     E
A misquito
A     G
My libido
C
Yeah

Nothing Else Matters

Intro:

--------------0----------------------
----------0------0-------------------
------0--------------0---------------   x3
-------------------------------------
-------------------------------------
--0----------------------------------

--------------0------7----7---------7p0---------
---------0-------0------------0-----0-----0-----
-----0---------------------------0------------0-
------------------------------------------------
------------------------------------------------
--0-----------------------0---------------------

-0---------7--8----7h8/5--7--5p3/2-----------------
-----------0--0-----------0---------5----5-------5-
-----0---------------------------------------5-----
---------------------------------------------------
-----------------------------------------0---------
-0-------------------------------------------------

-2p0-------------------------0----0---0---0-------
-------5----------------5---------5---5---5-------
-----------5--------5-------------5---5---5------5
--------------------------------------------------
---------------0------------------0---2---3---3---
--------------------------------------------------

---------3p0-----------0---0--------------------
-5------------5--------5---7------------7-------
------5-----------5----5---7-------7--------7---
------------------------------------------------
-----------------------3---5---5----------------
------------------------------------------------

One:

e|-------------------------------------------|
b|-----------------3p2-----3p2-----3-3p2-----|
g|------2-4b6r4~-------4-------2---------4~--|
D|-2h4---------------------------------------|
A|-------------------------------------------|
E|-------------------------------------------|


e|--------------------------------------------------------------------|
b|----------------------------------------2h3-2~------2-3p2-----------|
g|-11p9\7--9p7\6--7p6\4--6p4\2--/4~~---/4----------/4-------2-/4~~----|
D|--------------------------------------------------------------------|
A|--------------------------------------------------------------------|
E|--------------------------------------------------------------------|

   /rake\
e|-----14-19--17p15----15------|
b|---15-------------19----15~--|
g|-16--------------------------|
D|-----------------------------|
A|-----------------------------|
E|-----------------------------|


e|-----------------------------------|
b|-----------------------------------|
g|-7p6-7--9p7-9--11p9-11--/12-12-11--|
D|-----------------------------------|
A|-----------------------------------|
E|-----------------------------------|

                                                                  end solo
e|-----------------------------------------------------------------------|
b|------------------------12--------12-14-15-/17-15-14-12-14-14--15-12~--|
g|-----11-12-14------11-12--------11-------------------------------------|
D|---12------------12-----------12---------------------------------------|
A|-14------------14-----------14-----------------------------------------|
E|-----------------------------------------------------------------------|

I Write Sins Not Tragedies

Am
Oh, well imagine, as I'm pacing the pews in a church corridor, and I
Dm                                              F (let it ring for acoustic)
can't help but to hear, no I can't help but to hear an exchanging of words:

Am
"What a beautiful wedding! What a beautiful wedding!" says a bridesmaid to a waiter. (yes)
Dm                                        F                  
"but what a shame, what a shame, the poor groom's bride is a SHHHH."

Dance, Dance
Intro: Danielle-Bass
 
Chorus:
(1:30)
e|-------------|
B|-------------|
G|-4--7--------|
D|-4--7--5--4--|
A|-2--5--5--4--|
E|-------3--2--|
Outro:
(2:50)
e|-----------------|  
B|-----------------|
G|-6-4---6-4---7---|
D|-----4-----4---4-|
A|-----------------|
E|-----------------|

Teenagers:

Gtr 1
e|------------------------------------|----------------------|-----|
B|------------------------------------|----------------------|-----|
G|--14141414-141311--9-9-13-7--9-9-9--|--8-8-9-9-11-13-11-9--|--9--|
D|---x-x-x-x--x-x-x--x-x--x-x--x-x-x--|--x-x-x-x--x--x--x-x--|--x--|
A|--12121212-1211-9--7-7-11-7--7-7-7--|--6-6-7-7--9-11--9-7--|--7--|
E|------------------------------------|----------------------|-----|

not done            
Submit corrections

↑ Back to top | Tablatures and chords for acoustic guitar and electric guitar, ukulele, drums are parodies/interpretations of the original songs. You may use it for private study, scholarship, research or language learning purposes only