Home » V » Various Artists »

Various Artists - Autumn Leaves Tabs

Artists:  A B C D E F G H I J K L M N O P Q R S T U V W X Y Z # 

Autumn Leaves Tabs
Version #1
Various Artists


Copy URL
VERSE 1
             Dm7    G7          Cmaj7    Fmaj7         Bm7-5    E7          Am   
e|--------|------|------------|--0-0--|--0----------|--------|------------|------|
B|----0-1-|--6---|--3-------0-|--0----|--1----------|--3-----|--3---------|--1---|
G|--2-----|--5---|--4---0-2---|--0----|--2-----0-2--|--2-----|--1------1--|--2---|
D|--------|--7---|--3---------|--2----|--3---3------|--3-----|--0--2--4---|--2---|
A|--------|--5---|--5---------|--3----|-------------|--2-----|--2---------|--0---|
E|--------|------|--3---------|-------|-------------|--------|--0---------|------|


VERSE 2   
             Dm7    G7          Cmaj7    Fmaj7         Bm7-5    E7          Am   
e|--------|------|------------|--0----|--0----------|--------|------------|------|
B|----0-1-|--6---|--3-------0-|--0----|--1----------|--3-----|--0--0-3-1--|------|
G|--2-----|--5---|--4---0-2---|--0----|--2-----0-2--|--2-----|--1---------|--2---|
D|--------|--7---|--3---------|--2----|--3---3------|--3-----|--0---------|--2---|
A|--------|--5---|--5---------|--3----|-------------|--2-----|--2---------|--0---|
E|--------|------|--3---------|-------|-------------|--------|--0---------|------|


CHORUS
    Am        E          E          Am
e|---------|----------|----------|---------|
B|---------|--0----0--|--0----0--|---1-----|
G|--2-1-2--|--1-------|--1--2----|---2-----|
D|--2------|--2--2----|--2-------|---2-----|
A|--0------|--2-------|--2-------|---0-----|
E|---------|--0-------|--0-------|---------|


    Am        Dm7     G7        Cmaj7              Bdim
e|---------|-------|----3-1--|--0-----|--0---0--|--1--1----|
B|--1-0-1--|--3----|---------|--0-----|----4----|--0----3--|
G|--2------|--2----|--0------|--0-----|---------|--1-------|
D|--2------|--0----|--3------|--2-----|---------|--0-------|
A|--0------|-------|--2------|--3-----|---------|----------|
E|---------|-------|--3------|--------|---------|----------|


    E7          Am  D9       Bm7-5       E7           Am   (repeat from top)
e|--------1--|--0---0-----|-----------|------------|-------||
B|--0--0-----|--1---1-----|--3-3---1--|--0--0h1----|-------||
G|--1--------|--2---2--2--|--2--------|--1---------|--2----||
D|--0--------|--2---4-----|--3--------|--0------2--|--2----||
A|--2--------|--0---0-----|--2--------|--2---------|--0----||
E|--0--------|------------|-----------|--0---------|-------||            
Submit corrections

↑ Back to top | Tablatures and chords for acoustic guitar and electric guitar, ukulele, drums are parodies/interpretations of the original songs. You may use it for private study, scholarship, research or language learning purposes only