» » »

Van Hunt - Down Here In Hell Bass

Artists:  A B C D E F G H I J K L M N O P Q R S T U V W X Y Z # 

Down Here In Hell Bass

(ver. 1) Click to play this song!
Van Hunt
 Rating:
4/5 (4 votes)
    Down Here In Hell lessons Tabs too difficult? Try these video lessons and learn fast
                -------------------------------------------------------------------------------
-------------------------------------------------------------------------------


Tuning: Standard


Intro

G|--------------------------------------------------------|
D|--------------------------------------------------------|
A|-6--6--8--8--------------6--6--8--8---------------------|
E|-------------3--7--8--7--------------3--3--7--8--7--8---|

Main Riff (most of the song)

G|----------------------------|
D|----------------------------|
A|----------------------------|
E|-6--6--6--6-6-8--8\3-3--4-4-|

Breakdown (Repeat 3x)

G|----------------------------|
D|----------------------------|      
A|-6--6--8--8-----------------|
E|------------3--3-7--7-8--10-|
 
then...

G|------------------------------|
D|------------------------------|       
A|-6--6--8--8-------------------|
E|------------3--3-7--7-8--7-8--|

Repeat main riff for remainder of the song.

| /  slide up
| \  slide down
| h  hammer-on
| p  pull-off
| ~  vibrato
| +  harmonic
| x  Mute note
===============================================================================
            
Submit corrections

↑ Back to top | Tablatures and chords for acoustic guitar and electric guitar, ukulele, drums are parodies/interpretations of the original songs. You may use it for private study, scholarship, research or language learning purposes only