» » »

Van Halen - Running With The Devil Tabs

Artists:  A B C D E F G H I J K L M N O P Q R S T U V W X Y Z # 

Running With The Devil Tabs

(ver. 3) Click to play this song!
Van Halen
 Rating:
4/5 (4 votes)
                Van Halen-Running with the devil
9/23/03
Tuning-standard

Main riff/ Chorus

------------------------------
-------5---7---7--9--11--9----
-------5---7---7--9--11--9----
-------5---7---7--9--11--9----
------------------------------
-17\--------------------------

verse


-----------------------------------
-----------------------------------
-2-----2---4--2---2-----2---4--2---
-2-----2---5--4---2-----2---5--4---
-0-----0----------0-----0----------
----3----------------3-------------

--------------------
--------12h---------
-----12h------------
--12h---------------
--------------------
--------------------
had to steal......

solo:
------------------------------------------------------------17b---
---------14-15-17-15-------12-13-15-13---14-15-17-15-14-14--------
------14----------------12----------------------------------------
-7\14----------------12-------------------------------------------
            
Submit corrections

↑ Back to top | Tablatures and chords for acoustic guitar and electric guitar, ukulele, drums are parodies/interpretations of the original songs. You may use it for private study, scholarship, research or language learning purposes only