» » »

Vangelis - Rachel's Song Bass

Artists:  A B C D E F G H I J K L M N O P Q R S T U V W X Y Z # 

Rachel's Song Bass

(ver. 1) Click to play this song!
Vangelis
 Rating:
4/5 (4 votes)
                ---------------------------------------------------------------------------- 
----------------------------------------------------------------------------


Tuning: Standard 5-String


 (start at 0:24)
G|---------------------------------|
D|---------------------------------|
A|---------------------------------| 
E|---------------------------------|
B|-8---------------8---------------|

G|---------------------------------|
D|---------------------------------|
A|-----------------------5---------|			
E|---------8-------10--5-----------|
B|-8-------------------------------|

G|-----------------------------------------|
D|-----------------------------------------|
A|-----------------------------------------| 
E|---------8-----------10------------------|
B|-8---------------8-----8---------8-------|

 (1:18)
G|---------------------------------|
D|---------------------------------|
A|-----------------------5---------| 			
E|---------8-------10--5-----------|
B|-8-------------------------------|

G|---------------------------------|
D|---------------------------------|
A|---------------------------------| 
E|---------8-----------10----------|
B|-8---------------8-----8---------|

 (1:50)
G|---------------------------------|
D|---------------------------------|
A|---------------------------------|			
E|---------11----------10----------|
B|-3---------------8-----8---------|

G|---------------------------------|
D|---------------------------------|
A|-----------------10--------------|
E|-10------11----------10----------|
B|-----------------------8---------|

 (2:23)
G|-12------------------------------|
D|---------------------------------|
A|-10--------------------5---------| 			
E|---------8-------10--5-----------|
B|---------------------------------|

G|-12------------------------------|
D|---------------------------------|
A|-10--------------10--------------| 
E|---------8-----------10----------|
B|-----------------------8---------|

 (2:56)
G|---------------------------------|
D|---------------------------------|
A|-----------------10--------------|		
E|-10------11----------10----------|
B|-----------------------8---------|

G|-----------------------------------------|
D|-----------------------------------------|
A|-----------------------------------------|
E|-10------11----------10------------------|
B|-----------------8-----8---------8-------|

 (3:32)
G|---------------------------------|
D|---------------------------------|
A|-10--------------10--------------| 			
E|---------------------------------|
B|-8---------------8---------------|

G|---------------------------------|
D|---------------------------------|
A|-5---------------5---------------| 
E|---------------------------------|
B|-3---------------3---------------|

G|---------------------------------|
D|---------------------------------|
A|---------------------------------| 
E|---------------------------------|
B|-8---------------8---------------|

| /  slide up
| \  slide down
| h  hammer-on
| p  pull-off
| ~  vibrato
| +  harmonic
| x  Mute note

=============================================================================
I have so many good and warm memories of this song. They are so precious and
so is the woman who shares the same memories with me. E, you are dear to me.
=============================================================================
            
Submit corrections

↑ Back to top | Tablatures and chords for acoustic guitar and electric guitar, ukulele, drums are parodies/interpretations of the original songs. You may use it for private study, scholarship, research or language learning purposes only