Home » V » Vanessa Williams »

Vanessa Williams - Colors Of The Wind Tabs

Artists:  A B C D E F G H I J K L M N O P Q R S T U V W X Y Z # 

Colors Of The Wind Tabs

(ver. 2) Click to play this song!
Vanessa Williams
e |----------------|----------------------------|----------------------------|
B |----------------|--0-----0--2--3--2----------|--0-------------------------|
G |----------------|--------------------2-------|----------------------------|
D |-----------4----|--------------0-------------|--------4-----------4--4----|
A |----------------|--2-------------------------|--0-----------0-------------|
E |----------------|----------------------------|----------------------------|


e ----------------------------|----------------------------|
B --0--0--0--2--3--0--3-------|--2--0-----0--2-----2-------|
G ----------------------------|--------2-------------------|
D --------------0-------------|----------------------------|
A --2-------------------------|--0-----------0-------------|
E ----------------------------|----------------------------|


e ----------------------------|----------------------------|
B --3--2--0-----------0--2----|--3--2--0-------------------|
G --------------2-------------|--------------2-----2-------|
D -----------4----------------|-----------4----------------|
A ----------------------------|----------------------------|
E --3-----------2-------------|--3-----------2-------------|


e -----------0--2-----5--3----|--2-------------|----------------------------|
B --0--2--3-----0--3----------|--2-------------|-----3-----0----------------|
G --------------0-------------|--3-----2-------|--0-------------------------|
D --------------0-------------|--4--------4----|--------0-----------0-------|
A --2-------------------------|----------------|----------------------------|
E ----------------------------|----------------|--3-----------3-------------|


e ----------------------------|----------------------------|
B -----0----------------------|--0h-3-----0----------------|
G --0--------0----------------|----------------------------|
D --------2-----------2-------|--------0-----------0-------|
A ----------------------------|----------------------------|
E --0-----------0-------------|--3-----------3-------------|


e ----------------------------||---------------------------|----------------|
B -----0----------------------||-0--3--3--0--0-------------|----------------|
G --0--------0----------------||o---------------2--2--0----|--2-------------|
D --------2-----------0-------||o------------0-------------|-----2-----0----|
A ----------------------------||---------------------------|----------------|
E --0-----------0-------------||-3-------------------------|--0-----0-------|


e ----------------------------|----------------------------|
B --0--3--3--0--0-------------|--0-----------------3-------|
G -----------------2--2--0----|----------------------------|
D --------------0-------------|--------0h-4----------------|
A ----------------------------|--2-----------2-------------|
E --3-------------------------|----------------------------|


e --0-------------------------|----------------------------|
B --0--3--3--0--0-------------|-----------------------0----|
G --0--------------2--2--0----|--2-----------------0-------|
D ----------------------------|--------2-------------------|
A ----------------------------|--3-------------------------|
E --0-----------0-------------|--------------3-------------|


e ----------------------------|----------------------------|
B --------------0--3-----0----|-----------0----------------|
G --2-----0--2--------2-------|--------0-------------------|
D --------------0-------------|--2-----------------0-------|
A --0-------------------------|----------------------------|
E ----------------------------|--0-----------0-------------|


e ----------------------------|--3--2--2--0--0-------------|
B --------------------0--3----|--0--------------3--0-------|
G --0-------------------------|--0--------------------2----|
D -----------0----------------|----------------------------|
A --------2-------------------|----------------------------|
E --3-----------3-------------|--0-----------0-------------|


e --------------0-------------|--3--2--2--0--0-------------|
B --0-----3--------------3----|--0--------------3--3--0----|
G --------------------0-------|--0-------------------------|
D --------4-------------------|----------------------------|
A --2-----------3-------------|----------------------------|
E ----------------------------|--0-----------0-------------|


e ----------------------------|--3--2--2--0--0--------0----|
B --3-----------------0--3----|-----------------3--3-------|
G -----------4----------------|--------------0-------------|
D --------4-------------------|----------------------------|
A --2-----------2-------------|--3-------------------------|
E ----------------------------|----------------------------|


e ----------------------------|----------------------------|
B --3-----0-------------------|-----0--0-------------------|
G -----------------------0----|--2--------2--2--0--0-------|
D --------------------2-------|-----------------------2----|
A -----------------2----------|--3-----------3-------------|
E --3--------2--0-------------|----------------------------|


e ----------------------------|----------------------------|
B ----------------------------|-----0--0-------------------|
G --0--------------------0----|--2--------2--2--0-----0----|
D -----------2--------2-------|--------------0-----2-------|
A --------2--------2----------|--0-------------------------|
E --0-----------0-------------|----------------------------|


e ----------------------------|----------------------------|
B -----3-----0----------------|-----0----------------------|
G --0-------------------------|--0--------0----------------|
D --------0-----------0-------|--------2-----------0-------|
A ----------------------------|----------------------------|
E --3-----------3-------------|--0-----------0-------------|


e ----------------------------|--------------2-----0-------|
B ----------------------------|--3--------------------3----|
G --0-------------------------|--------------------0-------|
D -----------0--------0-------|--------4-------------------|
A --------2-------------------|--2-----------3-------------|
E --3-----------3-------------|----------------------------|


e -----0----------------------|----------------------------|----------------|
B --3-----3-------------------|--------0-------------------|--0-------------|
G --------------0--------0----|--2-----------2--------0----|-----2--2-------|
D --------0-----------2-------|--------------------2-------|-----------0----|
A ----------------------------|--------------3-------------|--3-------------|
E --3-----------0-------------|--1-------------------------|--------2-------|


e ----------------------------|--3--2--2--0--0-------------|
B -----------1--0-------------|--0--------------3--0-------|
G --------0-----------3-------|--0--------------------2----|
D -----2--------0-------------|----------------------------|
A --3-------------------------|----------------------------|
E ----------------------------|--0-----------0-------------|


e --------------0-------------|--3--2--2--0--0-------------|
B --0-----3--------------3----|--0--------------3--3--0----|
G --------------------0-------|--0-------------------------|
D --------4-------------------|----------------------------|
A --2-----------3-------------|----------------------------|
E ----------------------------|--0-----------0-------------|


e ----------------------------|--3--2--2--0--0--------0----|
B --3-----------------0--3----|-----------------3--3-------|
G --------------4-------------|----------------------------|
D --------4-------------------|--------------0-------------|
A --2-----------2-------------|--3-------------------------|
E ----------------------------|----------------------------|


e ----------------------------|----------------------------|
B --3-------------------------|-----0--0-------------------|
G --------0--------------0----|--2--------2--2--0--0-------|
D --------------------2-------|-----------------------2----|
A -----------------2----------|--3-----------3-------------|
E --3--------2--0-------------|----------------------------|


e ----------------------------|----------------------------|
B ----------------------------|-----0--0-------------------|
G --0--------------------0----|--2--------2--2-----0--2----|
D -----------2--------2-------|--------------0-------------|
A --------2--------2----------|--3-------------------------|
E --0-----------0-------------|----------------------------|


e --------------0--------0----|--3--2--0-------------------|-------|----||
B --0--3--0--3--------3-------|--0--------3--0-------------|-------|----||
G ----------------------------|--0--------------2--0-------|--0----|----||
D ----------------------------|-----------------------2----|--0----|----||
A --2-----------3-------------|--------------3-------------|--2----|----||
E ----------------------------|--0-------------------------|--3----|----||
            
Submit corrections

↑ Back to top | Tablatures and chords for acoustic guitar and electric guitar, ukulele, drums are parodies/interpretations of the original songs. You may use it for private study, scholarship, research or language learning purposes only