Home » V » Vanessa Carlton »

Vanessa Carlton - C'est La Vie Bass

Artists:  A B C D E F G H I J K L M N O P Q R S T U V W X Y Z # 

C'est La Vie Bass

(ver. 1) Click to play this song!
Vanessa Carlton
Artist - Vanessa Carlton
Song - C'est La Vie
Album - Harmonium
Track - 8
Bassist - Arion Salazar

G-----------------|
D-----------------|
A-----------------|
E-7---5---4---3---| x5

G-----------------|
D-----------------|
A-----------------|
E-0---2---3---5---| x2

G-------------|
D-------------|
A-------------|
E-0---2---3---| x1

Rest

G-----------------|
D-----------------|
A-----------------|
E-7---5---4---3---| x5

G-------------|
D-------------|
A-------------|
E-0---2---3---| x1

Rest

G-----------------|
D-----------------|
A-----------------|
E-0---2---3---5---| x1

G-----------------|
D-----------------|
A-----------------|
E-7-------5-----2-|

G-----------------|
D-----------------|
A-----------------|
E-4-------3---2---|

G----------------------------|
D----------------------------|
A-------5-----5--------------|
E-7-------5-----4----3---2---|

G-----------------|
D-----------------|
A-----------------|
E-0---2---3---5---| x1

G-------------------------|
D-------------------------|
A-----------5-------------|
E-7-7--5-5---4-4--3-3-2-2-|

G-------------------------|
D-------------------------|
A-----7-----5-------------|
E-7-7--5-5---4-4--3---2---|

G-----------------|
D-----------------|
A-----------------|
E-0---2---3---5---| x1

G-----------------|
D-----------------|
A-----------------|
E-7---5---4---3---| x2

PALM MUTE THIS BIT
G-----------------|
D-----------------|
A-----------------|
E-0-0-2-2-3-3-5-5-| x2

G-----------------|
D-----------------|
A-----------------|
E-0-0-2-2-3-------| x1

Rest

G-----------------|
D-----------------|
A-----------------|
E-7/--2---0-------| x1

G-----------------|
D-----------------|
A-----------------|
E-7---3-------0-2-| x1

G-----------------|
D-----------------|
A-----------------|
E-7/--2---0-------| x1

G-----------------|
D-----------------|
A---------------5-|
E-7---5---4---3---| x1

G-----------------|
D-----------------|
A-----------------|
E-7---5---4---3---| x1
            
Submit corrections

↑ Back to top | Tablatures and chords for acoustic guitar and electric guitar, ukulele, drums are parodies/interpretations of the original songs. You may use it for private study, scholarship, research or language learning purposes only