Home » V » Vanessa Carlton »

Vanessa Carlton - A Thousand Miles Ukulele

Artists:  A B C D E F G H I J K L M N O P Q R S T U V W X Y Z # 

A Thousand Miles Ukulele

(ver. 1) Click to play this song!
Vanessa Carlton
[Intro] C F G | C F G | Am G | Am G


[Verse 1]

C                 G
Making my way downtown
       F                 G                   C F G C F G
Walking fast, faces pass and I'm home bound
C                 G
Staring blankly ahead
                F             G                Am
Just making my way, making my way through the crowd


[Bridge]

Am F G
     And I need you
C F G
     And I miss you
Am F G              F  G
     And now I wonder....
Am     G       Am        F
If I could fall into the sky
Am      G         Am        F
Do you think time would pass me by?
  Am           G          F
Cause you know I'd walk a thousand miles
       C     F     G            C F G C F G Am G Am G
If I could see you..... tonight.


[Verse 2]

       C                G
It's always times like these
          F        G               C            F G C F G
When I think of you and I wonder if you think of me
       C             G
Cause everything so wrong
         F             G                     Am
And I don't belong living in your precious memories


[Bridge]

Am F G
     And I need you
C F G
     And I miss you
Am F G            F     G
     And now I wonder...
Am      G          Am      F
If I could fall into the sky
Am        G         Am         F
Do you think time would pass me by?
       Am           G              F
Cause you know I'd walk a thousand miles
        C   F     G            C F G C F G Am G Am G
If I could see you..... tonight.


[Interlude]

  Am     G
And I, I don't wanna let you know
Am  F
I, I drown in your memories
Am     G
I, I don't wanna let this go
Am      F
I, I don't....


[Verse 1]

C              G
Making my way downtown
F                G                        C F G C F G
Walking fast, faces pass and I'm home bound
C               G
Staring blankly ahead
             F               G                   Am
Just making my way, making my way through the crowd..


[Bridge]

Am F G
     And I need you
C F G
     And I miss you
Am F G             F  G
     And now I wonder...
Am        G      Am        F
If I could fall into the sky
Am        G        Am          F
Do you think time would pass me by?
    Am              G              F
Cause you know I'd walk a thousand miles
           C    F    G              C F G C F G Am G Am G
If I could just see you..... tonight.


[Outro]

  Am    G       Am     F
If I could fall into the sky
  Am      G        Am       F
Do you think time would pass me by?
     Am        G          F
Cause you know I'd walk a thousand miles
           C     F    G
If I could just see you..... 
           C     F    G
If I could just hold you......
     C
Tonight....

A|-----3-3-2--2--------3-3-2--2----------------3-3-2--2--------------3--|
E|-------------3-0-------------3--3-3--0-1-0-----------3-0----0----0--2-|
C|-0----0----0----2-0---0----0--0--0-0------0---0----0----2-0--2-0--2---|
G|----------------------------------------------------------------------|
 
A|-3--2----3--3-3--3-------3-3-3-7-7-7-5-----3-3-3-7-7-7-5-----3-3-3-7-7-7-5-----3---2---|
E|-1--3----0--1-0--1-------3-3-3-8-8-8-3--0--3-3-3-8-8-8-3--7--3-3-3-8-8-8-3--0--1---3---|
C|-0--2----0--0-0--0--0----5-5-5-7-7-7-2-0-0-5-5-5-7-7-7-2-0-2-5-5-5-7-7-7-2-0-0-0---2---|
G|-------------------------------------------------------------------------------0---0---|
 
A|-7-8-10---------10-7-8-10---------10-7-8-10---------10-3---5-|
E|---------7--8--------------7--8--------------7--8------3---3-|
C|----------0--0--------------0--0--------------0--0-----0---2-|
G|-----0-----0--0-0------0-----0--0-0------0-----0--0-0--2---0-|
 
A|----3-3-2--2--------3-3-2--2----------------3-3-2--2--------------3--|
E|------------3-0-------------3--3-3--0-1-0-----------3-0----0----0--2-|
C|-0---0----0----2-0---0----0--0--0-0------0---0----0----2-0--2-0--2---|
G|---------------------------------------------------------------------|
 
A|-3--2----3--3-3--3-------3-3-3-7-7-7-5-----3-3-3-7-7-7-5-----3-3-3-7-7-7-5-----3---2---|
E|-1--3----0--1-0--1-------3-3-3-8-8-8-3--0--3-3-3-8-8-8-3--7--3-3-3-8-8-8-3--0--1---3---|
C|-0--2----0--0-0--0--0----5-5-5-7-7-7-2-0-0-5-5-5-7-7-7-2-0-2-5-5-5-7-7-7-2-0-0-0---2---|
G|-------------------------------------------------------------------------------0---0---|
 
A|-7-8-10---------10-7-8-10---------10-7-8-10---------10-3---5----3----|
E|---------7--8--------------7--8--------------7--8------3---3----0----|
C|----------0--0--------------0--0--------------0--0-----0---2----0----|
G|-----0-----0--0-0------0-----0--0-0------0-----0--0-0--2---0----0----|            
Submit corrections

↑ Back to top | Tablatures and chords for acoustic guitar and electric guitar, ukulele, drums are parodies/interpretations of the original songs. You may use it for private study, scholarship, research or language learning purposes only