Home » V » Vanessa Carlton »

Vanessa Carlton - Annie Bass

Artists:  A B C D E F G H I J K L M N O P Q R S T U V W X Y Z # 

Annie Bass

(ver. 1) Click to play this song!
Vanessa Carlton
Artist - Vanessa Carlton
Song - Annie
Album - Harmonium
Track - 3
Bassist - Arion Salazar

Wait a while, then in:
G-----------------|
D-----------------|
A-----------------|
E-0---2---4---5---| x10

G---------------------------------|
D---------------------------------|
A-7-5-4---------------4-----2-4-5-|
E-------5---0-2-4---4---5---------| x6

G---------------------------------|
D---------------------------------|
A-3---3---3---3---5---5---5---5---|
E---------------------------------| x1

G---------------------------------|
D---------------------------------|
A-5---4---2-------5---4---2-------|
E-------------5-------------------| x1

G---------------------------------|
D---------------------------------|
A-5---4---2-------5---4---2-2-2-2-|
E-------------5-------------------| x1

G-----------------|
D-----------------|
A-----------------|
E-0---2---4---5---| x4

G---------------------------------|
D---------------------------------|
A-7-5-4---------------4-----2-4-5-|
E-------5---0-2-4---4---5---------| x2

G---------------------------------|
D---------------------------------|
A-3---3---3---3---5---5---5---5---|
E---------------------------------| x1

G---------------------------------|
D---------------------------------|
A-5---4---2-------5---4---2-------|
E-------------5-------------------| x1

G---------------------------------|
D---------------------------------|
A-5---4---2-------5---4---2-2-2-2-|
E-------------5-------------------| x1

G---------------------------------|
D---------------------------------|
A---------------------------------|
E-1-1-1-1-1-1-1-1-1-1-1-1-1-1-1-1-| x1

G---------------------------------|
D---------------------------------|
A---------------------------------|
E-0-0-0-0-0-0-0-0-0-0-0-0-0-0-0-0-| x1

G---------------------------------|
D---------------------------------|
A-5-5-5-5-5-5-5-5-5-5-5-5-5-5-4---|
E-------------------------------5-| x1

G---------------------------------|
D---------------------------------|
A---------------------------------|
E-7-7-7-7-7-7-7-7-7-7-7-7-7h9p7-5-| x1

G---------------------------------|
D---------------------------------|
A---------------------------------|
E-0-0-0-0-0-0-0-0-2-2-2-2-2-2-2-2-| x1

G----------------------------------|
D----------------------------------|
A----------------------------------|
E-0-0-0-0-0-0-0-0/1212121212121212-| x1

G-----------------|
D-----------------|
A-----------------|
E-0---2---4---5---| x2

Rest a while

G---------------------------------|
D---------------------------------|
A-5---4---2-------5---4---2-------|
E-------------5-------------------| x3

G---------------------------------|
D---------------------------------|
A---------------------------------|
E-2-2-2-2-2-2-2-2-0-0-0-0-0-0-0-0-| x1

G---------------------------------|
D---------------------------------|
A---------------------------------|
E-5-5-5-5-5-5-5-5-0-0-0-0-0-0-0-0-| x1

G----------|
D----------|
A-5~~~~~---
E---------- x1
            
Submit corrections

↑ Back to top | Tablatures and chords for acoustic guitar and electric guitar, ukulele, drums are parodies/interpretations of the original songs. You may use it for private study, scholarship, research or language learning purposes only