» » »

Van Dik Hout - Alles Of Niets Bass

Artists:  A B C D E F G H I J K L M N O P Q R S T U V W X Y Z # 

Alles Of Niets Bass

(ver. 1) Click to play this song!
Van Dik Hout
 Rating:
4/5 (4 votes)
                
intro (2x):

g|----------------|
d|----------------|
a|17--15--14--12--|
e|--------------15|

verse (x8):

g|------------------|
d|------------------|
a|5--5--3--3--2-2-0-|
e|-----------------3|

pre chorus (x2) ("want als deze liefde jou teveel wordt")

g|-----------------------|
d|-----------------------|
a|1--1--------5-5-5-5-5-5|
e|------3--3-------------|

verse (x4)

pre chorus (x2)

chorus part 1 (x2) ("want ik kan niet leven zonder alles of niets")

g|--------------------------------------------------|
d|-----------------------------------3-3-----3-3----|
a|-------------------------------5-5-----5-5-----5-5|
e|1-1-1-1-1-1-1-1-3-3-3-3-3-3-3-3-------------------|

chorus part 2 ("dus gooi die munt maar op en we gaan voor alles of niets")

g|-----------------------------------------------|
d|-----------------------------------------------|
a|--------------------------------5-5-5-5-5-5-5-5|
e|1-1-1-1-1-1-1-1-5-5-5-5-3-3-3-3----------------|

break ("en we hebben geen geld maar we hebben de liefde")

g||-----------||---------------|
d|*-----------*|---------------|
a|*6-6-----1-1*|--------5-5-5-5|
e||----3-3----||3-3-3-3--------|

chorus

break without bass

verse (x4)

pre chorus (x2)

chorus


its not entirely correct, in fact, the bassplayer of Van Dik Hout throws in different riffs,
but if you aren't that good, and you want to play along, I think this is a nice version for you.

++++++++++++++++++++++++++++++++++++++++++++++++++++++++++++++++++++++++++++++++++++++++++
++++++++++++++++++++++++++++++++++++++++++++++++++++++++++++++++++++++++++++++++++++++++++
            
Submit corrections

↑ Back to top | Tablatures and chords for acoustic guitar and electric guitar, ukulele, drums are parodies/interpretations of the original songs. You may use it for private study, scholarship, research or language learning purposes only