» » »

Vance Joy - Wasted Time Tabs

Artists:  A B C D E F G H I J K L M N O P Q R S T U V W X Y Z # 

Wasted Time Tabs

(ver. 1) Click to play this song!
Vance Joy
 Rating:
4.3/5 (19 votes)

 Wasted Time  lessons Tabs too difficult? Try these video lessons and learn fast
 
                Capo 2

[Intro]

e|-----------------------|----------------------|-----------------------|
B|-----------------------|----------------------|-----------------------|
G|-------0---------0-----|------2---------2-----|-------0---------2-----|
D|---0----0----0----0----|--0----0----0----0----|---0----0----0----0----|
A|-----------------------|----------------------|-----------------------|
E|---3--3--3---3--3--3---|--2--2--2---2--2--2---|---3--3--3---2--2--2---|

e|-----------------------|-----------------------|-----------------------|-----------------------|
B|-----------------------|-----------------------|-----------------------|-------3---------1-----|
G|-------0---------0-----|-------0---------2-----|-------0---------0-----|--------0---------0----|
D|---2----2----0h2--2----|---0----0----0----0----|---2----2----0h2--2----|---2---------0h2-------|
A|---3--3--3------3--3---|-----------------------|---3--3--3------3--3---|---3--3--3------3--3---|
E|-----------------------|---3--3--3---2--2--2---|-----------------------|-----------------------|

e|-----------------------|-----------------------|
B|-----------------------|-----------------------|
G|-------0---------0-----|-------0---------0-----|
D|---0----0----0----0----|---0----0----0----0----|
A|-----------------------|-----------------------|
E|---3--3--3---3--3--3---|---3--3--3---3--3--3---|


[Verse] X2

e|-----------------------|-----------------------|-----------------------|-----------------------|
B|-----------------------|-----------------------|-----------------------|-----------------------|
G|-------0---------0-----|-------0---------0-----|-------2---------2-----|-------2---------2-----|
D|---0----0----0----0----|---0----0----0----0----|---0----0----0----0----|---0----0----0----0----|
A|-----------------------|-----------------------|-----------------------|-----------------------|
E|---3--3--3---3--3--3---|---3--3--3---3--3--3---|---2--2--2---2--2--2---|---2--2--2---2--2--2---|

e|-----------------------|-----------------------|-----------------------|
B|-----------------------|-----------------------|-----------------------|
G|-------0---------2-----|-------0---------0-----|-------0---------2-----|
D|---0----0----0----0----|---2----2----0h2--2----|---0----0----0----0----|
A|-----------------------|---3--3--3------3--3---|-----------------------|
E|---3--3--3---2--2--2---|-----------------------|---3--3--3---2--2--2---|

e|-----------------------|-----------------------|
B|-----------------------|-------3---------1-----|
G|-------0---------0-----|--------0---------0----|
D|---2----2----0h2--2----|---2---------0h2-------|
A|---3--3--3------3--3---|---3--3--3------3--3---|
E|-----------------------|-----------------------|

e|-----------------------|-----------------------|
B|-----------------------|-----------------------|
G|-------0---------0-----|-------0---------0-----|
D|---0----0----0----0----|---0----0----0----0----|
A|-----------------------|-----------------------|
E|---3--3--3---3--3--3---|---3--3--3---3--3--3---|

[Pre-chorus]

e|-----------------------|-----------------------|-----------------------|-----------------------|
B|-----------------------|-----------------------|-----------------------|-----------------------|
G|-------0---------0-----|-------0---------0-----|-------0---------0-----|-------0---------0-----|
D|---2----2----2----2----|---2----2----2----2----|---0----0----0----0----|---0----0----0----0----|
A|-----------------------|-----------------------|-----------------------|-----------------------|
E|---0--0--0---0--0--0---|---0--0--0---0--0--0---|---3--3--3---3--3--3---|---3--3--3---3--3--3---|

Repeat X3
e|-----------------------|-----------------------|-------------------------------------------|
B|-----------------------|-----------------------|-------------------------------------------|
G|-------0---------0-----|-------2---------2-----|-------0---------0---------0---------0-----| 
D|---0h2--2----2----2----|---0----0----0----0----|---2----2----2----2----0----0----0----0----|
A|-----------------------|-----------------------|-------------------------------------------|
E|------0--0---0--0--0---|---2--2--2---2--2--2---|---3--3--3---3--3--3---3--3--3---3--3--3---|

[Chorus] X4

e|---3---3---0---3---|
B|---3---3---1---3---|  
G|---0---2---0---0---|  
D|---2---0---2---0---|
A|---2---0---3---2---|
E|---x---2---3---3---|

[Verse] X2

e|-----------------------|-----------------------|-------------------------------------------|
B|-----------------------|-----------------------|--------------------------------------------|
G|-------0---------0-----|-------0---------0-----|-------2---------2---------2---------2-----|
D|---0----0----0----0----|---0----0----0----0----|---0----0----0----0----0----0----0----0----|
A|-----------------------|-----------------------|-------------------------------------------|
E|---3--3--3---3--3--3---|---3--3--3---3--3--3---|---2--2--2---2--2--2---2--2--2---2--2--2---|

e|-----------------------|-------------------------------------------|
B|-----------------------|-------------------------------------------|
G|-------0---------2-----|-------0---------0---------0---------2-----|
D|---0----0----0----0----|---2----2----0h2--2----0----0----0----0----|
A|-----------------------|---3--3--3------3--3-----------------------|
E|---3--3--3---2--2--2---|-----------------------3--3--3---2--2--2---|

e|-----------------------|-----------------------|
B|-----------------------|-------3---------1-----|
G|-------0---------0-----|--------0---------0----|
D|---2----2----0h2--2----|---2---------0h2-------|
A|---3--3--3------3--3---|---3--3--3------3--3---|
E|-----------------------|-----------------------|

e|-----------------------|-----------------------|
B|-----------------------|-----------------------|
G|-------0---------0-----|-------0---------0-----|
D|---0----0----0----0----|---0----0----0----0----|
A|-----------------------|-----------------------|
E|---3--3--3---3--3--3---|---3--3--3---3--3--3---|

[Pre-chorus]

e|-----------------------|-----------------------|-----------------------|-----------------------|
B|-----------------------|-----------------------|-----------------------|-----------------------|
G|-------0---------0-----|-------0---------0-----|-------0---------0-----|-------0---------0-----|
D|---2----2----2----2----|---2----2----2----2----|---0----0----0----0----|---0----0----0----0----|
A|-----------------------|-----------------------|-----------------------|-----------------------|
E|---0--0--0---0--0--0---|---0--0--0---0--0--0---|---3--3--3---3--3--3---|---3--3--3---3--3--3---|

Repeat X3
e|-----------------------|-----------------------|-----------------------|-----------------------|
B|-----------------------|-----------------------|-----------------------|-----------------------|
G|-------0---------0-----|-------2---------2-----|-------0---------0-----|-------0---------0-----| 
D|---0h2--2----2----2----|---0----0----0----0----|---2----2----2----2----|---0----0----0----0----|
A|-----------------------|-----------------------|-----------------------|-----------------------|
E|------0--0---0--0--0---|---2--2--2---2--2--2---|---3--3--3---3--3--3---|---3--3--3---3--3--3---|

[Chorus] X4

e|---3---3---0---3---|
B|---3---3---1---3---|  
G|---0---2---0---0---|  
D|---2---0---2---0---|
A|---2---0---3---2---|
E|---x---2---3---3---|

[Outro] X3

e|---3---3---0---3---|
B|---3---3---1---3---|  
G|---0---2---0---0---|  
D|---2---0---2---0---|
A|---2---0---3---2---|
E|---x---2---3---3---|            
Submit corrections


        Wasted Time  lessons Hard to play? Try these video lessons and learn fast Wasted Time  lessons
        
↑ Back to top | Tablatures and chords for acoustic guitar and electric guitar, ukulele, drums are parodies/interpretations of the original songs. You may use it for private study, scholarship, research or language learning purposes only