» » »

Vance Joy - Snaggletooth Tabs

Artists:  A B C D E F G H I J K L M N O P Q R S T U V W X Y Z # 

Snaggletooth Tabs

(ver. 1) Click to play this song!
Vance Joy
 Rating:
4.3/5 (16 votes)

 Snaggletooth lessons Tabs too difficult? Try these video lessons and learn fast
 
                e|---------------------------------------------------------------------------|
B|---------------------------------------------------------------------------|
G|7h9-9-9-7h9-9-9-11-11-12-12-12-12-12-12------------------------------------|
D|----------------------------------------12-12------------------------------|
A|---------------------------------------------------------------------------|
E|---------------------------------------------------------------------------|

e|---------------------------------------------------------------------------|
B|---------------------------------------------------------------------------|
G|7h9-9-9-7h9-9-9-7h9-9-9-11-11-12-12-11-12-12-12-12-------------------------|
D|------------------------------10-------------------12-12-------------------|
A|---------------------------------------------------------------------------|
E|---------------------------------------------------------------------------|            
Submit corrections


        Snaggletooth lessons Hard to play? Try these video lessons and learn fast Snaggletooth lessons
        
↑ Back to top | Tablatures and chords for acoustic guitar and electric guitar, ukulele, drums are parodies/interpretations of the original songs. You may use it for private study, scholarship, research or language learning purposes only