» » »

Vance Joy - Riptide Tabs

Artists:  A B C D E F G H I J K L M N O P Q R S T U V W X Y Z # 

Riptide Tabs

(ver. 1) Click to play this song!
Vance Joy
 Rating:
4.3/5 (16 votes)

 Riptide lessons Tabs too difficult? Try these video lessons and learn fast
 
                [Verse]
e|-------------------5------3---1---0-------------------------5--3-----1---0--------0-----0-3|
B|-----0-------1--3-----------------------------0------1--3--------------------3-------3-----|
G|0-2-------------------------------------0-2------------------------------------------------|
D|-------------------------------------------------------------------------------------------|
A|-------------------------------------------------------------------------------------------|
E|-------------------------------------------------------------------------------------------|
  I was scared of dentisits and the dark, I was scared of pretty girls and starting conversations

e|0--0----0--0-----------0-------0-----------------0---0--------0-------0---------|
B|-------------------3------3-----------3------3-----3--------3----3-------3-----1|
G|--------------------------------------------------------------------------------|
D|--------------------------------------------------------------------------------|
A|--------------------------------------------------------------------------------|
E|--------------------------------------------------------------------------------|
  Oh, all my friends are turning green, you're the magician's assistant in their dreams

[Pre-Chorus]
e|---5---3---0-------5---3--3---3---3----5----3-5-r-3|
B|---------------------------------------------------|
G|0---------------0----------------------------------|
D|---------------------------------------------------|
A|---------------------------------------------------|
E|---------------------------------------------------|
  Oh ooh-ooh-ooh, oh-oh, oh-oh, and they come unstu-uck
  
[Chorus]
e|0-0---0--0---3----0----------------0-0---0-3---0-----------------0-0-0---3-0----------------|
b|----------------------3---3--1--------------------3---3----1---------------------3---1-----1|
G|--------------------------------------------------------------------------------------------|
D|--------------------------------------------------------------------------------------------|
A|--------------------------------------------------------------------------------------------|
E|--------------------------------------------------------------------------------------------|
  Lady, running down to the riptide, taken a-way to the dark side, I wanna be your left hand man

e|--0---0---0----0-------3---0-----------------0-0---0-3----0-------------|
B|1------------------------------3----3----1-------------------3--3------3|
G|------------------------------------------------------------------------|
D|------------------------------------------------------------------------|
A|------------------------------------------------------------------------|
E|------------------------------------------------------------------------|
  I love you when you're singing that song and I got a lump in my throat 'cause 

e|0------0--0--3----0----------|
B|----------------------3-----1|
G|-----------------------------|
D|-----------------------------|
A|-----------------------------|
E|-----------------------------|
  You're gonna sing the words wrong

[Verse]
e|------------------------5-3-----1------0-------------------------0----5---3---1--0---------0--------0-3|
B|-------------0--1--3----------------------------------0-1-----3-------------------------3------3-------|
G|0-------2------------------------------------0----2----------------------------------------------------|
D|-------------------------------------------------------------------------------------------------------|
A|-------------------------------------------------------------------------------------------------------|
E|-------------------------------------------------------------------------------------------------------|
  There's this movie that I think you'll like, this guy decides to quit his job and heads to New York City

e|0----0--0-----0-------0-------0-----0----0---------0------0------0--------|
B|-----------------3---------3------------------3-------3------3-------3---1|
G|--------------------------------------------------------------------------|
D|--------------------------------------------------------------------------|
A|--------------------------------------------------------------------------|
E|--------------------------------------------------------------------------|
  This cowboy's running from himself, and she's been living on the highest shelf

[Pre-Chorus]
e|---5---3---0-------5---3--3---3---3----5----3-5-r-3|
B|---------------------------------------------------|
G|0---------------0----------------------------------|
D|---------------------------------------------------|
A|---------------------------------------------------|
E|---------------------------------------------------|
  Oh ooh-ooh-ooh, oh-oh, oh-oh, and they come unstu-uck
  
[Chorus]
e|0-0---0--0---3----0----------------0-0---0-3---0-----------------0-0-0---3-0----------------|
b|----------------------3---3--1--------------------3---3----1---------------------3---1-----1|
G|--------------------------------------------------------------------------------------------|
D|--------------------------------------------------------------------------------------------|
A|--------------------------------------------------------------------------------------------|
E|--------------------------------------------------------------------------------------------|
  Lady, running down to the riptide, taken a-way to the dark side, I wanna be your left hand man

e|--0---0---0----0-------3---0-----------------0-0---0-3----0-------------|
B|1------------------------------3----3----1-------------------3--3------3|
G|------------------------------------------------------------------------|
D|------------------------------------------------------------------------|
A|------------------------------------------------------------------------|
E|------------------------------------------------------------------------|
  I love you when you're singing that song and I got a lump in my throat 'cause 

e|0------0--0--3----0----------|
B|----------------------3-----1|
G|-----------------------------|
D|-----------------------------|
A|-----------------------------|
E|-----------------------------|
  You're gonna sing the words wrong

[Solo] times four
e|----0h3----| OR e|-------------|
B|3h5-----5-5|    B|3h5-5-5h8-5-5|
G|-----------|    G|-------------|
D|-----------|    D|-------------|
A|-----------|    A|-------------|
E|-----------|    E|-------------|

[Bridge]
e|-------0-------------0---------------------0----------------0--------------|
B|----------3-------------3---------------------3----------------3--1--------|
G|2-2-----------2-2---------0------2--2-------------2--2---------------------|
D|---------------------------------------------------------------------------|
A|---------------------------------------------------------------------------|
E|---------------------------------------------------------------------------|
  I just wanna, I just wanna know, if you're gonna, if you're gonna stay

e|-------0-------------0-------------------0----------------0------------------|
B|----------3-------------3---------------------3----------------3-------------|
G|2-2-----------2-2---------0------2-2--------------2--2------------2-0-------2|
D|----------------------------------------------------------------------3--3---|
A|-----------------------------------------------------------------------------|
E|-----------------------------------------------------------------------------|
  I just gotta, I just gotta know, I can't have it, I can't have it any other way

e|--0-----0-----0--------0-------0-------0--0----0--------0--------0--------0----------0-----0------|
B|-----------------3---------3-------------------------3------3---------3--------3-------3---------1|
G|2-------------------------------------------------------------------------------------------------|
D|--------------------------------------------------------------------------------------------------|
A|--------------------------------------------------------------------------------------------------|
E|--------------------------------------------------------------------------------------------------|
  I swear she's destined for the screen, closest thing to Michelle Pfeiffer that you've ever seen, oh

[Chorus] times three
e|0-0---0--0---3----0----------------0-0---0-3---0-----------------0-0-0---3-0----------------|
b|----------------------3---3--1--------------------3---3----1---------------------3---1-----1|
G|--------------------------------------------------------------------------------------------|
D|--------------------------------------------------------------------------------------------|
A|--------------------------------------------------------------------------------------------|
E|--------------------------------------------------------------------------------------------|
  Lady, running down to the riptide, taken a-way to the dark side, I wanna be your left hand man

e|--0---0---0----0-------3---0-----------------0-0---0-3----0-------------|
B|1------------------------------3----3----1-------------------3--3------3|
G|------------------------------------------------------------------------|
D|------------------------------------------------------------------------|
A|------------------------------------------------------------------------|
E|------------------------------------------------------------------------|
  I love you when you're singing that song and I got a lump in my throat 'cause 

e|0------0--0--3----0----------|
B|----------------------3-----1|
G|-----------------------------|
D|-----------------------------|
A|-----------------------------|
E|-----------------------------|            
Submit corrections


        Riptide lessons Hard to play? Try these video lessons and learn fast Riptide lessons
        
↑ Back to top | Tablatures and chords for acoustic guitar and electric guitar, ukulele, drums are parodies/interpretations of the original songs. You may use it for private study, scholarship, research or language learning purposes only