» » »

Vance Joy - Fire And The Flood Tabs

Artists:  A B C D E F G H I J K L M N O P Q R S T U V W X Y Z # 

Fire And The Flood Tabs

(ver. 1) Click to play this song!
Vance Joy
 Rating:
4.3/5 (18 votes)

 Fire And The Flood  lessons Tabs too difficult? Try these video lessons and learn fast
 
                [Verse]

e|--------------------------------------------------------------------------|
B|-----------3----------------------------3---------------------------------|
G|-0-2-4-2-4------0-2-4-2-0-----0-2-4-2-4------0-2-4-2----------------------|
D|--------------------------------------------------------------------------|
A|--------------------------------------------------------------------------|
E|-3---3---3------3---3---------3---3---3------3---3------------------------|

e|--------------------------------------------------------------------------|
B|-0-3-3-0-3-0---0---0-3-3-0-3-0----0---------------------------------------|
G|-------------2-----------------2----2--0----------------------------------|
D|--------------------------------------------------------------------------|
A|-3---3---3---3-----3---3---3---3--3-3--3----------------------------------|
E|--------------------------------------------------------------------------|

 x2


[Pre-Chorus]

e|--------------------------------------------------------------------------|
B|-3-0------3p0-0-----------------------------------------------------------|
G|-----2----------2---------------------------------------------------------|
D|--------------------------------------------------------------------------|
A|-3-3-3----3---3-3---------------------------------------------------------|
E|--------------------------------------------------------------------------|


[Chorus]

e|-0---0---0-0-----------------------0---0----------------------------------|
B|---3---------3p0-0----0-0---0-3------3---------3-0---0--0---0-3-----------|
G|--------------------------2-------------------------------2---------------|
D|--------------------------------------------------------------------------|
A|-3-3-3---3-3-3---------------------3-3-3-------3-3------------------------|
E|-----------------3----3-3-3-3-3----------------------3--3-3-3-3-----------|

e|--0---0-0-0------3-3-3h0-----3-3-3h0------0---0--0-0----------------------|
B|----3-------3------------3-----------3------3--------3p0-0----------------|
G|--------------------------------------------------------------------------|
D|--------------------------------------------------------------------------|
A|--3-3-3-3-3-3----3-3-3---3---3-3-3---3----3-3-3--3-3-3--------------------|
E|---------------------------------------------------------3----------------|


[Instrumental]

e|--------------------------------------------------------------------------|
B|-----------3----------------------------3---------------------------------|
G|-0-2-4-2-4------0-2-4-2-0-----0-2-4-2-4------0-2-4-2----------------------|
D|--------------------------------------------------------------------------|
A|--------------------------------------------------------------------------|
E|-3---3---3------3---3---------3---3---3------3---3------------------------|

e|--------------------------------------------------------------------------|
B|-----------3----------------------------3---------------------------------|
G|-0-2-4-2-4------0-2-4-2-0-----0-2-4-2-4------0-2-4-2-0--------------------|
D|--------------------------------------------------------------------------|
A|--------------------------------------------------------------------------|
E|-3---3---3------3---3---------3---3---3------3---3---3--------------------|


[Verse 2]

e|--------------------------------------------------------------------------|
B|-----------3----------------------------3---------------------------------|
G|-0-2-4-2-4------0-2-4-2-0-----0-2-4-2-4------0-2-4-2----------------------|
D|--------------------------------------------------------------------------|
A|--------------------------------------------------------------------------|
E|-3---3---3------3---3---------3---3---3------3---3------------------------|

e|--------------------------------------------------------------------------|
B|-0-3-3-0-3-0---0---0-3-3-0-3-0----0---------------------------------------|
G|-------------2-----------------2----2--0----------------------------------|
D|--------------------------------------------------------------------------|
A|-3---3---3---3-----3---3---3---3--3-3--3----------------------------------|
E|--------------------------------------------------------------------------|

x2


[Pre-Chorus]

e|--------------------------------------------------------------------------|
B|-3-0------3p0-0-----------------------------------------------------------|
G|-----2----------2---------------------------------------------------------|
D|--------------------------------------------------------------------------|
A|-3-3-3----3---3-3---------------------------------------------------------|
E|--------------------------------------------------------------------------|


[Chorus]

e|-0---0---0-0-----------------------0---0----------------------------------|
B|---3---------3p0-0----0-0---0-3------3---------3-0---0--0---0-3-----------|
G|--------------------------2-------------------------------2---------------|
D|--------------------------------------------------------------------------|
A|-3-3-3---3-3-3---------------------3-3-3-------3-3------------------------|
E|-----------------3----3-3-3-3-3----------------------3--3-3-3-3-----------|

e|--0---0-0-0------3-3-3h0-----3-3-3h0------0---0--0-0----------------------|
B|----3-------3------------3-----------3------3--------3p0-0----------------|
G|--------------------------------------------------------------------------|
D|--------------------------------------------------------------------------|
A|--3-3-3-3-3-3----3-3-3---3---3-3-3---3----3-3-3--3-3-3--------------------|
E|---------------------------------------------------------3----------------|


[Instrumental]

e|--------------------------------------------------------------------------|
B|-----------3----------------------------3---------------------------------|
G|-0-2-4-2-4------0-2-4-2-0-----0-2-4-2-4------0-2-4-2----------------------|
D|--------------------------------------------------------------------------|
A|--------------------------------------------------------------------------|
E|-3---3---3------3---3---------3---3---3------3---3------------------------|

e|--------------------------------------------------------------------------|
B|-----------3----------------------------3---------------------------------|
G|-0-2-4-2-4------0-2-4-2-0-----0-2-4-2-4------0-2-4-2-0--------------------|
D|--------------------------------------------------------------------------|
A|--------------------------------------------------------------------------|
E|-3---3---3------3---3---------3---3---3------3---3---3--------------------|


[Bridge]

e|--------------------------------------------------------------------------|
B|--3-0--------------3-0------------------3-0---3-0-------------------------|
G|------2---0-2-4--------2--0-7-4-------0-----------------------------------|
D|--------------------------------------------------------------------------|
A|--3-3-3-------3----3-3-3----5-3-------3-3-3---3-3-------------------------|
E|----------0-3-------------0-----------------------------------------------|


[Chorus]

e|-0---0---0-0-----------------------0---0----------------------------------|
B|---3---------3p0-0----0-0---0-3------3---------3-0---0--0---0-3-----------|
G|--------------------------2-------------------------------2---------------|
D|--------------------------------------------------------------------------|
A|-3-3-3---3-3-3---------------------3-3-3-------3-3------------------------|
E|-----------------3----3-3-3-3-3----------------------3--3-3-3-3-----------|

e|--0---0-0-0------3-3-3h0-----3-3-3h0------0---0--0-0----------------------|
B|----3-------3------------3-----------3------3--------3p0-0----------------|
G|--------------------------------------------------------------------------|
D|--------------------------------------------------------------------------|
A|--3-3-3-3-3-3----3-3-3---3---3-3-3---3----3-3-3--3-3-3--------------------|
E|---------------------------------------------------------3----------------|            
Submit corrections


        Fire And The Flood  lessons Hard to play? Try these video lessons and learn fast Fire And The Flood  lessons
        
↑ Back to top | Tablatures and chords for acoustic guitar and electric guitar, ukulele, drums are parodies/interpretations of the original songs. You may use it for private study, scholarship, research or language learning purposes only