» » »

Vance Joy - Emmylou Tabs

Artists:  A B C D E F G H I J K L M N O P Q R S T U V W X Y Z # 

Emmylou Tabs

(ver. 1) Click to play this song!
Vance Joy
 Rating:
3.1/5 (28 votes)

 Emmylou lessons Tabs too difficult? Try these video lessons and learn fast
 
                Finger picking

 F                    F                    Am                       G
|--------------------------------------------------------------------------------------|
|---1-1-------1-----------1-1-------1-----------------------1--------------------------|
|---2----0h2---2----------2----0h2---2----------0h2-2--0h2---2----------0--0-----0-----|
|-3-------------3------3--------------3---------0h2-----------2---------0---0------0---|
|--------------------------------------------0---------------------------------2-------|
|---------------------------------------------------------------------3----------------|


Solo

|--------------------------------------------------------------------------------------|
|--------------------------------3/5--3--1--0-0--0h1--3--3/5---------------------------|
|-2------0h2-0-2------0h2-0-2----------------------------------------------------------|
|--------------------------------------------------------------------------------------|
|--------------------------------------------------------------------------------------|
|--------------------------------------------------------------------------------------|            
Submit corrections


        Emmylou lessons Hard to play? Try these video lessons and learn fast Emmylou lessons
        
↑ Back to top | Tablatures and chords for acoustic guitar and electric guitar, ukulele, drums are parodies/interpretations of the original songs. You may use it for private study, scholarship, research or language learning purposes only