» » »

Vampire Weekend - Cape Cod Kwassa Kwassa Tabs

Artists:  A B C D E F G H I J K L M N O P Q R S T U V W X Y Z # 

Cape Cod Kwassa Kwassa Tabs

(ver. 2) Click to play this song!
Vampire Weekend
 Rating:
4/5 (14 votes)
                Previous version was played too high on the fretboard.  Ezra rarely leaves the top two 
when he doesn't have to.  That helps his very open, clean, afro-twangy sort of sound.

Intro/verse:
e|--2-2--5-5--3-2-0h2p0------------------------|
B|--3-3--2-2--3--------3---0---2----3----------|
G|---------------------------0---2--2----------|
D|---------------------------------------------|
A|---------------------------------------------|
E|---------------------------------------------|

For the "Is your bed made?" part, play these 2-note chords.  Play the second twice.
e|----------------------|
B|--0---2---3-----------|
G|--0---2---2-----------|
D|----------------------|
A|----------------------|
E|----------------------|

Use them again for the first time through "Feels so unnatural, Peter Gabriel too".  For 
second time through that line, play this little arpeggio:

e|--7-----7-----9-------9----------------------|
B|----8-----8-----10------10-------------------|
G|------9-----9------11------11----------------|
D|---------------------------------------------|
A|---------------------------------------------|
E|---------------------------------------------|

Then back to the verse figure.
            
Submit corrections

↑ Back to top | Tablatures and chords for acoustic guitar and electric guitar, ukulele, drums are parodies/interpretations of the original songs. You may use it for private study, scholarship, research or language learning purposes only