» » »

Valley Of Chrome - Extinction Agenda Tabs

Artists:  A B C D E F G H I J K L M N O P Q R S T U V W X Y Z # 

Extinction Agenda Tabs

(ver. 1) Click to play this song!
Valley Of Chrome
 Rating:
4/5 (4 votes)

 Extinction Agenda lessons Tabs too difficult? Try these video lessons and learn fast
 
                (Intro)
Extinction Agenda - Valley of Chrome
Intro [only]

Guitar 2

e|----------------------------|
B|----------------------------|
G|----------------------------|
D|--11-11-11-777-999-11-11-11-|
A|--11-11-11-777-999-11-11-11-|
E|--9--9--9--555-777-9--9--9--|

e|----------------------------|
B|----------------------------|
G|-----------999--------------|
D|--11-11-11-999-999-10-10-10-|
A|--11-11-11-777-999-11-11-11-|
E|--9--9--9------777-8--8--8--|

e|----------------------------|
B|----------------------------|
G|----------------------------|
D|--11-11-11-777-999-11-11-11-|
A|--11-11-11-777-999-11-11-11-|
E|--9--9--9--555-777-9--9--9--|

e|----------------|
B|----------------|
G|------9----9-9--|
D|-11-7-9-9--9-9--|
A|-11-7-7-9--7-6--|
E|-9--5---7-------|

Guitar 1

e|-----------------------------|
B|-----------------------------|
G|---6h8s9-8-6---6-----9-------|
D|-------------9---9-7---7-6---|
A|-----------------------------|
E|-----------------------------|

e|--------------------------------|
B|--------9------12-10-9---9------|
G|---9h11---11-9---------11--9-8--|
D|--------------------------------|
A|--------------------------------|
E|--------------------------------|

e|-----------------------------|
B|-----------------------------|
G|---6h8s9-8-6---6-----9-------|
D|-------------9---9-7---7-6---|
A|-----------------------------|
E|-----------------------------|

e|---------------------------------|
B|----9-7--7-----------------------|
G|-----------9---9-8--8p6-5h6-8-6--|
D|--6----6-----6-------------------|
A|---------------------------------|
E|---------------------------------|



Guitar 2

e|---------------------------------------|
B|---------------------------------------|
G|---------------------------------------|  [2x]
D|-11-11-11-11--7777--9999--10-10-10-10--| 
A|-11-11-11-11--7777--9999--11-11-11-11--|
E|-9--9--9--95--5555--7777--8--8--8--8---|

Guitar 1

e|---------------------------------|
B|----------7----------------------|
G|--6-8-8s9---9-8-9-----8h9--------|  [2x]
D|------------------9-9-----10-10--| 
A|---------------------------------|
E|---------------------------------|



Guitar 2

e|---------------------------------|
B|------7-7s9--10p9-7h9-----9-7-7--|
G|--9-9-----------------8-8--------|  [2x]
D|---------------------------------|
A|---------------------------------|
E|---------------------------------|

Guitar 1

e|---------------------------------|
B|----------7----------------------|
G|--6-8-8s9---9-8-9-----8h9--------|  [2x]
D|------------------9-9-----10-10--| 
A|---------------------------------|
E|---------------------------------|


-pasensya na po..intro lang nakayanan ko
-paubaya ko na sa iba yung ibang tab
-hehehe..enjoy kasi tugtugin ito eh.. yun lang po
            
Submit corrections


        Extinction Agenda lessons Hard to play? Try these video lessons and learn fast Extinction Agenda lessons
        
↑ Back to top | Tablatures and chords for acoustic guitar and electric guitar, ukulele, drums are parodies/interpretations of the original songs. You may use it for private study, scholarship, research or language learning purposes only