» » »

Valencia - Space Between Tabs

Artists:  A B C D E F G H I J K L M N O P Q R S T U V W X Y Z # 

Space Between Tabs

(ver. 1) Click to play this song!
Valencia
 Rating:
4/5 (9 votes)


 Space Between lessons Tabs too difficult? Try these video lessons and learn fast
 
                -------------------------------------------------------------------------------
-------------------------------------------------------------------------------

Tuning: standard
intro

( not just all 8th notes) figure out beat
e|---------5~--------------5~--------------5~--------------5~------|
B|-----3-------3-------3-------3~------3-------3-------3-----3---3-|
G|-0-0---0-------0~--0---0---------0-0---0-------0~--0---0-----0---|
D|-----------------------------------------------------------------|
A|-----------------------------------------------------------------|
E|-----------------------------------------------------------------|
   1 & 2 & 3 & 4 & 1 & 2 & 3 & 4 & 1 & 2 & 3 & 4 & 1 & 2 & 3 & 4 &

e|---------0~--------------0~--------------0~--------------0~--------|
B|-----3-------3-------3-------3~------3-------3-------3-----3---3---|  x2
G|-2-2---2-------2~--2---2---------2-2---2-------2~--2---2-----2-----|
D|-------------------------------------------------------------------|
A|-------------------------------------------------------------------|
E|-------------------------------------------------------------------|
   1 & 2 & 3 & 4 & 1 & 2 & 3 & 4 & 1 & 2 & 3 & 4 & 1 & 2 & 3 & 4 &

Guitar 2 fall (0:12)
e|-------------|
B|-------------|
G|-------------|
D|--9\---------|
A|--9\---------|
E|--7\---------|


Guitar 2 intro comes in the second time at (0:18)
            up beats
e|---------------------------------------------------------------------------|
B|----------10---------------------------------------------------------------|
G|12h-11----------------11---------------------------------------------------|
D|-------12------12--------12------------------------------------------------|
A|---------------------------------------------------------------------------|
E|---------------------------------------------------------------------------|
   1  &   2  & 3  &   4  &  1


  !!Break!!  (0:32)  (always lookin...up!!)
Guitar 1
e|---------2---2h3h2----|
B|-3---5-------------3--|
G|---2---2---2----------|
D|----------------------|
A|----------------------|
E|----------------------|

Guitar 2
e|--------------------10h12h10----|
B|-10----------15--------------10-|
G|----11----11----11--------------|
D|-------12-----------------------|
A|--------------------------------|
E|--------------------------------|

VERSE version 1 other guitar picks pattern around a D chord with a 0
e|--5-----3----                                        e|-2-|
B|--5-----3----                                        B|-3-|
G|--7-----0---- x2                                     G|-2-|
D|--7-x16-0-x8-                                        D|-0-|
A|--5-----2----                                        A|---|
E|--5-----3----                                        E|---|

im not sure wich version is right but they both work well

VERSE version 2
e|-------------|
B|-------------|
G|-7-----------|
D|-7-x16-5-----| x2
A|-5-----5-x8--|
E|-------3-----|

Guitar 1 Fill at (0:51)
e|-------------|
B|-------------|
G|-9--11-9--7--|
D|-x--x--x--x--|
A|-7--9--7--5--|
E|-------------|

Guitar 2
E|-------------|
B|-------------|
G|-12-11-9--11-|
D|-X--X--X--X--|
A|-10-9--7--9--|
E|-------------|

CHORUS

e|---------------------------------------------------------------------------|
B|---------------------------------------------------------------------------|
G|-7---------4-44-6-7---11111111112-9----7-----------------------------------|
D|-7-x8-7----4-44-6-7---11111111112-9----7-x16-------------------------------|
A|-5----7-x8-2-22-4-5---9-9-9-9-910-7----5-----------------------------------|
E|------5--------------------------------------------------------------------|
             1 2& & &   1 & 2 & 3&  &


sorry, but thats as far as i got
            
Submit corrections



        Space Between lessons Hard to play? Try these video lessons and learn fast Space Between lessons
        
↑ Back to top | Tablatures and chords for acoustic guitar and electric guitar, ukulele, drums are parodies/interpretations of the original songs. You may use it for private study, scholarship, research or language learning purposes only