» » »

Vagabond - Thunderblunder Tabs

Artists:  A B C D E F G H I J K L M N O P Q R S T U V W X Y Z # 

Thunderblunder Tabs

(ver. 1) Click to play this song!
Vagabond
 Rating:
4.3/5 (18 votes)

 Thunderblunder lessons Tabs too difficult? Try these video lessons and learn fast
 
                [ntro](Repeat 3 times)
Eb|--------------------------------------|
Bb|--------------------------------------|
Gb|--------------------------------------|
Db|-.--.---------------------------------|
Ab|-0--4-0-2~--2-22-2-0--4-0-2~----------|
Eb|------------------------------0-4-2-0-|
       PM         PM     PM      PMPMPMPM

Eb|----------------------------------------|
Eb|----------------------------------------|
Eb|----------------------------------------|
Eb|----.--------------2-1------------------|
Eb|-0--4-0-2~--2-22-2-----4-2-2-2-0---4-2~-|
Eb|----------------------------------------|
     PM         PM          PM

(1st Verse]
 Repeat this a few times...   then
Eb|---7/9\7---------------------7/9\7---7/9\7---7/9\7---|
Bb|---------7-------------------------7-------7-------7-|
Gb|-----------7~-----4--4-------------------------------|
Db|------------------4--4-------------------------------|
Ab|----------------x-2--2-------------------------------|
Eb|-----------------------------------------------------|

[Chorus](with wah pedal)
Eb|--------------------------|
Bb|--------------------------|
Gb|-6-6--6--6-6--------------|
Db|-6-6--6--6-6-and so on...-|
Ab|--------------------------|
Eb|--------------------------|

[2nd Verse]
 Repeat this a few times... 
Eb|---7/9\7-------------------|
Bb|---------7-----------------|
Gb|-----------7~-----4--4-----|
Db|------------------4--4-----|
Ab|----------------x-2--2-----|
Eb|---------------------------|

 and repeat this            then...
Eb|---------------------------------------|
Bb|---------------------------------------|
Gb|---------------------------------------|
Db|---------------------------------------|
Ab|-2-2-5--22-2-2-5-22--------2-2-5--2-2\-|
Eb|---------------------------------------|
  PMPM   PMPMPM   PM        PMPM
Eb|-------------------------------------------9--7-----21--19------19b1/~-|
Bb|-------------------------------------------------7----------19---------|
Gb|----------------------------------6--4---------------------------------|
Db|----------------------------------------4------------------------------|
Ab|---------------------5---4--2------------------------------------------|
Eb|-3~---3-2-0----2--0------------2---------------------------------------|

 [Chorus]

 Repeat next 2 lines twice
Eb|--------------------------------------|
Bb|--------------------------------------|
Gb|--------------------------------------|
Db|----.---------------------------------|
Ab|-0--4-0-2~--2-22-2-0--4-0-2~----------|
Eb|------------------------------0-4-2-0-|
     PM         PM     PM       PMPMPMPM

Eb|-----------------------------------------------|
Bb|-----------------------------------------------|
Gb|-----------------------------------------------|
Db|----.--------------2-1---------2-1-----2-1-----|
Ab|-0--4-0-2~--2-22-2-----4-2-2-2-----4-2-----4-2-|
Eb|-----------------------------------------------|
     PM         PM          PM
Eb|-----------------------------------------------------|
Bb|-----------------------------------------------------|
Gb|-----------------------------------------------------|
Db|----.-----------------------------------.------------|
Ab|-0--4-0-2~--2-22-2-0--4-0-2~--2-22-2-0--4-0-2~-2-----|
Eb|-----------------------------------------------------|
     PM         PM     PM         PM     
 
[Solo]
While playing the 3 lines above, play the guitar solo starting at
 CD time : 2'19" with wah pedal during the entire solo
Eb|------------------------------------------------------------------|
Bb|---------------------------9p7---------9p7---------9p7---------7~-|
Gb|-66-6-6-6-6-6-6-6----7b1/------6-7b1/------6-7b1/------6-7b1/-----|
Db|-66-6-6-6-6-6-6-6-------------------------------------------------|
Ab|------------------------------------------------------------------|
Eb|------------------------------------------------------------------|

Eb|-19-17h19p17-------------------------------------------------------|
Bb|-------------17-15h19p15-15bh/~----19-15h19p15-15------------------|
Gb|---------------------------------------------------16h19p16-----16~|
Db|------------------------------------------------------------19~----|
Ab|-------------------------------------------------------------------|
Eb|-------------------------------------------------------------------|

Eb|-------------------------------------14-14-14-16-16-19~-|
Bb|-------------------14-14-14-16-16-16--------------------|
Gb|-13-13-13-16-16-16--------------------------------------|
Db|--------------------------------------------------------|
Ab|--------------------------------------------------------|
Eb|--------------------------------------------------------|

 no wah pedal
Eb|-------------------------|
Bb|-------------------------|
Gb|-------------------------|
Db|-------------------------|
Ab|-4-4\--2-2\--------------|
Eb|-------------2-2\--0-0\--|
  PM--------------------|

[Chorus]

 Repeat next 2 lines twice
Eb|--------------------------------------|
Bb|--------------------------------------|
Gb|--------------------------------------|
Db|----.---------------------------------|
Ab|-0--4-0-2~--2-22-2-0--4-0-2~----------|
Eb|------------------------------0-4-2-0-|
     PM         PM     PM       PMPMPMPM

Eb|-----------------------------------------------|
Bb|-----------------------------------------------|
Gb|-----------------------------------------------|
Db|----.--------------2-1---------2-1-----2-1-----|
Ab|-0--4-0-2~--2-22-2-----4-2-2-2-----4-2-----4-2-|
Eb|-----------------------------------------------|
     PM         PM          PM
Eb|-----------------------------------------------------|
Bb|-----------------------------------------------------|
Gb|-----------------------------------------------------|
Db|----.-----------------------------------.------------|
Ab|-0--4-0-2~--2-22-2-0--4-0-2~--2-22-2-0--4-0-2~-2-----|
Eb|-----------------------------------------------------|
     PM         PM     PM         PM     


Eb|-22b1/---22-21-19----19-22~-|
Bb|------------------21--------|
Gb|----------------------------|
Db|----------------------------|
Ab|----------------------------|
Eb|----------------------------|            
Submit corrections


        Thunderblunder lessons Hard to play? Try these video lessons and learn fast Thunderblunder lessons
        
↑ Back to top | Tablatures and chords for acoustic guitar and electric guitar, ukulele, drums are parodies/interpretations of the original songs. You may use it for private study, scholarship, research or language learning purposes only