» » »

Vagabond - Tabs

Artists:  A B C D E F G H I J K L M N O P Q R S T U V W X Y Z # 

Tabs

(ver. 1) Click to play this song!
Vagabond
 Rating:
4.3/5 (13 votes)

  lessons Tabs too difficult? Try these video lessons and learn fast
 
                [Intro]
    CD Time (1'13") - With volume pedal
Eb|---------------------------|
Bb|-------11~--8~---8gh/\p7~--|
Gb|-9~------------------------|
Db|---------------------------|
Ab|---------------------------|
Eb|---------------------------|

  [Chorus]                                   
Eb|-9--\6--------------/9----9--\6-----------------|
Bb|-9--\6-7------9---8-/9----9--\6-7---------------|
Gb|-6--\3-6------8---6-/6----6--\3-6---------------|
Db|-------4------6---4-------------4---------------|   
Ab|------------------------------------------------|
Eb|------------------------------------------------|

Eb|------------------------------------------------|
Bb|-9--\6--------------\9----9--\6-----------------|
Gb|-8--\5-6------8---6-\8----8--\5-6----8-h9p8\6~--|
Db|-6--\3-6------8---6-\6----6--\3-6---------------|
Ab|-------4------6---4-------------4---------------|
Eb|------------------------------------------------|

  [Chorus]                                   
Eb|-9--\6--------------/9----9--\6-----------------|
Bb|-9--\6-7------9---8-/9----9--\6-7---------------|
Gb|-6--\3-6------8---6-/6----6--\3-6---------------|
Db|-------4------6---4-------------4---------------|   
Ab|------------------------------------------------|
Eb|------------------------------------------------|

Eb|------------------------------------------------|
Bb|-9--\6--------------\9----9--\6-----------------|
Gb|-8--\5-6------8---6-\8----8--\5-6----8-h9p8\6~--|
Db|-6--\3-6------8---6-\6----6--\3-6---------------|
Ab|-------4------6---4-------------4---------------|
Eb|------------------------------------------------|

  [2nd Verse]        CD time (2'03")
Eb|-------------------|--------------------11--------------------------|
Bb|-------------------13\11--------13\11-------------------------------|
Gb|-\3~----------------------10----------------8b1/---\----------------|
Db|------------------------------------------------------8---6-5~--4~--|
Ab|--------------------------------------------------------------------|
Eb|--------------------------------------------------------------------|

  [Chorus]                                   
Eb|-9--\6--------------/9----9--\6-----------------|
Bb|-9--\6-7------9---8-/9----9--\6-7---------------|
Gb|-6--\3-6------8---6-/6----6--\3-6---------------|
Db|-------4------6---4-------------4---------------|   
Ab|------------------------------------------------|
Eb|------------------------------------------------|

Eb|------------------------------------------------|
Bb|-9--\6--------------\9----9--\6-----------------|
Gb|-8--\5-6------8---6-\8----8--\5-6----8-h9p8\6~--|
Db|-6--\3-6------8---6-\6----6--\3-6---------------|
Ab|-------4------6---4-------------4---------------|
Eb|------------------------------------------------|

Eb|----------------------------------------------------|
Bb|----------------------------------------------------|
Gb|----------------------------------------------------|
Db|----------------------------------------------------|
Ab|-.---.-------.---.-------.---.--------.---.---.--.--|
Eb|-4---4---4~--3---2---2~--3---3---3~---4---4---4--2--| 
   PM----------------------------------------------|

Eb|--------------------------------------------------|
Bb|--------------------------------------------------|
Gb|--------------------------------------------------|
Db|--------------------------------------------------|
Ab|-.---.-------.---.-------.---.--------------------|
Eb|-1---1---1~--2---2---2~--3---3---3~---4~--3~--2~--|

Eb|-21---------------------------------------18-------|
Bb|-----21------17----/19~-----21--17--20-------------|
Gb|---------20-----18---------------------18----18~\--|
Db|---------------------------------------------------|
Ab|---------------------------------------------------|
Eb|---------------------------------------------------|

Eb|----------------16---------------------------14~-----20bh/~--16--18-20bh/~-|
Bb|-14\---9---14--------16---\14------16---17---------------------------------|
Gb|-13\---8---13-----------------13-------------------------------------------|
Db|-11\---6---11--------------------------------------------------------------|
Ab|---------------------------------------------------------------------------|
Eb|---------------------------------------------------------------------------|

  [Chorus]                                   
Eb|-9--\6--------------/9----9--\6-----------------|
Bb|-9--\6-7------9---8-/9----9--\6-7---------------|
Gb|-6--\3-6------8---6-/6----6--\3-6---------------|
Db|-------4------6---4-------------4---------------|   
Ab|------------------------------------------------|
Eb|------------------------------------------------|

Eb|------------------------------------------------|
Bb|-9--\6--------------\9----9--\6-----------------|
Gb|-8--\5-6------8---6-\8----8--\5-6----8-h9p8\6~--|
Db|-6--\3-6------8---6-\6----6--\3-6---------------|
Ab|-------4------6---4-------------4---------------|
Eb|------------------------------------------------|

Eb|--------------------|
Bb|-----4---7p6p4------|
Gb|---6-----------6~---|
Db|-6------------------|
Ab|--------------------|
Eb|--------------------|            
Submit corrections


         lessons Hard to play? Try these video lessons and learn fast  lessons
        
↑ Back to top | Tablatures and chords for acoustic guitar and electric guitar, ukulele, drums are parodies/interpretations of the original songs. You may use it for private study, scholarship, research or language learning purposes only