» » »

Vagabond - Tabs

Artists:  A B C D E F G H I J K L M N O P Q R S T U V W X Y Z # 

Tabs

(ver. 1) Click to play this song!
Vagabond
 Rating:
4.3/5 (24 votes)

  lessons Tabs too difficult? Try these video lessons and learn fast
 
                [Intro]
Eb|-----------------|
Bb|-----------------|
Gb|---------2-------|
Db|-4-4-4-4----4-4--|   use talkbox here. x2
Ab|-----------------|
Eb|-----------------|
                                 
Eb|--------------------------------/14~-12p11h12~-p11\9-11-p9\7h-9~-|
Bb|-----------------------------------------------------------------|
Gb|-----------------------------------------------------------------|
Db|-----------------------------------------------------------------|
Ab|-----------------------------------------------------------------|
Eb|-----------------------------------------------------------------|

Eb|----------------------------------------------------------|
Bb|----------------------------------------------------------|
Gb|----------------------------------------------------------|
Db|----------------------------------------------------------|
Ab|-----2--2--2----2--x-2--2----2--x-2--2----2---x-2--2----2-|
Eb|-2-2------------------------------------------------------|

Eb|-------------------------------------------------------|
Bb|-------------------------------------------------------|
Gb|-------------------------------------------------------|
Db|-------------------------------------------------------|
Ab|-------------------------------------------------------|
Eb|-2--2---2----2----x-2--2----2--x-2--2----2---x-2--2----|

Eb|----------------------------------------------------------|
Bb|----------------------------------------------------------|
Gb|----------------------------------------------------------|
Db|----------------------------------------------------------|
Ab|-----2--2--2----2--x-2--2----2--x-2--2----2---x-2--2----2-|
Eb|-2-2------------------------------------------------------|

Eb|------------------------------------------------------------|
Bb|------------------------------------------------------------|
Gb|------------------------------------------------------------|
Db|------------------------------------------------------------|
Ab|----------------------------------------------------0h2h3h4-|
Eb|-2--2---2----2----x-2--2----2--x-2--2----2-----0\-----------|

Eb|----------------------------------------------------------|
Bb|-------------8----------8-----------8---8-----------------|
Gb|-------7h9---7-----7h9--7-----7h9---7---7----7--------3~--|
Db|-------7h9---------7h9--------7h9----------x-7----7-------|
Ab|------------------------------------------------x-7-------|
Eb|-0--0-----------0----------0----------------------0-------|

[Verse]
Eb|------------------------------------------------------|
Bb|----------------------------------------8-------------|
Gb|-------7h9---9-----7h9--9-----7h9---9---7----7--------|
Db|-------7h9---9-----7h9--9-----7h9---9------x-7----7---|
Ab|------------------------------------------------x-7---|
Eb|-0--0-----------0----------0----------------------0---|

Eb|------------------------------------------------------|
Bb|------------------------8---------------8---------10--|
Gb|-------7h9---9-----7h9--7-----7h9---9---7----7-----9--|
Db|-------7h9---9-----7h9--------7h9---9------x-7--------|
Ab|------------------------------------------------x-----|
Eb|-0--0-----------0----------0--------------------------|

Eb|------------------------------------------------------|
Bb|----------------------------------------8-------------|
Gb|-------7h9---9-----7h9--9-----7h9---9---7----7--------|
Db|-------7h9---9-----7h9--9-----7h9---9------x-7----7---|
Ab|------------------------------------------------x-7---|
Eb|-0--0----------0-0--------0-0---------------------0---|

Eb|----------------------------------------------------------------|
Bb|-------------8----------8---------------8-----------------------|
Gb|-------7h9---7-----7h9--7-----7h9---9---7----7---------7--------|
Db|-------7h9---------7h9--------7h9---9------x-7----7----7--------|
Ab|------------------------------------------------x-7----5----x/\-|
Eb|-0--0----------0-0--------0-0---------------------0-------------|

[Chorus]
Eb|-/14~-12p11h12~-p11\9-11-p9\7h-9~-|
Bb|----------------------------------|
Gb|----------------------------------|
Db|----------------------------------| X2
Ab|----------------------------------|
Eb|----------------------------------|

Eb|----------------------------------------------------------|
Bb|----------10----------------------------------------------|
Gb|-----------9----------------------------------------------|
Db|-----------7----------------------------------------------|
Ab|-----2--2--2----2--x-2--2----2--x-2--2----2---x-2--2----2-|
Eb|-2-2------------------------------------------------------|

Eb|-------------------------------------------------------|
Bb|-------10----------------------------------------------|
Gb|--------9----------------------------------------------|
Db|--------7----------------------------------------------|
Ab|-------------------------------------------------------|
Eb|-2--2---2----2----x-2--2----2--x-2--2----2---x-2--2----|

Eb|--------------------------------------------------------|
Bb|------12------------------------------------------------|
Gb|------11------------------------------------------------|
Db|-------9------------------------------------------------|
Ab|-2--2--2----2--x-2--2----2--x-2--2----2---x-2--2----2---|
Eb|--------------------------------------------------------|

Eb|----------------------------------------------------------------|
Bb|------10--------------------------------------------------------|
Gb|-------9--------------------------------------------------------|
Db|-------7--------------------------------------------------------|
Ab|--------------------------------0h2h3h4-----0h2h3h4-----0h2h3h4-|
Eb|-2--2--2----2----x-2--2--/14~-----------3~----------2~----------|

Eb|-------------------------------------------------|
Bb|-------8-----------8----------8------8~----------|
Gb|-------7-----------7----------7------7~----------|
Db|-------------------------------------------------|
Ab|-0--0------0--0-0-------0-0-0-----0------0h2h3h4-|
Eb|-------------------------------------------------|

[Verse]
Eb|------------------------------------------------------|
Bb|----------------------------------------8-------------|
Gb|-------7h9---9-----7h9--9-----7h9---9---7----7--------|
Db|-------7h9---9-----7h9--9-----7h9---9------x-7----7---|
Ab|------------------------------------------------x-7---|
Eb|-0--0-----------0----------0----------------------0---|

Eb|------------------------------------------------------|
Bb|------------------------8---------------8---------10--|
Gb|-------7h9---9-----7h9--7-----7h9---9---7----7-----9--|
Db|-------7h9---9-----7h9--------7h9---9------x-7--------|
Ab|------------------------------------------------x-----|
Eb|-0--0-----------0----------0--------------------------|

Eb|------------------------------------------------------|
Bb|----------------------------------------8-------------|
Gb|-------7h9---9-----7h9--9-----7h9---9---7----7--------|
Db|-------7h9---9-----7h9--9-----7h9---9------x-7----7---|
Ab|------------------------------------------------x-7---|
Eb|-0--0----------0-0--------0-0---------------------0---|

Eb|----------------------------------------------------------------|
Bb|-------------8----------8---------------8-----------------------|
Gb|-------7h9---7-----7h9--7-----7h9---9---7----7---------7--------|
Db|-------7h9---------7h9--------7h9---9------x-7----7----7--------|
Ab|------------------------------------------------x-7----5----x/\-|
Eb|-0--0----------0-0--------0-0---------------------0-------------|

[Chorus]
Eb|-/14~-12p11h12~-p11\9-11-p9\7h-9~-|
Bb|----------------------------------|
Gb|----------------------------------|
Db|----------------------------------| X2
Ab|----------------------------------|
Eb|----------------------------------|

Eb|----------------------------------------------------------|
Bb|----------10----------------------------------------------|
Gb|-----------9----------------------------------------------|
Db|-----------7----------------------------------------------|
Ab|-----2--2--2----2--x-2--2----2--x-2--2----2---x-2--2----2-|
Eb|-2-2------------------------------------------------------|

Eb|-------------------------------------------------------|
Bb|-------10----------------------------------------------|
Gb|--------9----------------------------------------------|
Db|--------7----------------------------------------------|
Ab|-------------------------------------------------------|
Eb|-2--2---2----2----x-2--2----2--x-2--2----2---x-2--2----|

Eb|--------------------------------------------------------|
Bb|------12------------------------------------------------|
Gb|------11------------------------------------------------|
Db|-------9------------------------------------------------|
Ab|-2--2--2----2--x-2--2----2--x-2--2----2---x-2--2----2---|
Eb|--------------------------------------------------------|

Eb|----------------------------------------------------------------|
Bb|------10--------------------------------------------------------|
Gb|-------9--------------------------------------------------------|
Db|-------7--------------------------------------------------------|
Ab|--------------------------------0h2h3h4-----0h2h3h4-----0h2h3h4-|
Eb|-2--2--2----2----x-2--2--/14~-----------3~----------2~----------|

Eb|-------------------------------------------------|
Bb|-------8-----------8----------8------8~----------|
Gb|-------7-----------7----------7------7~----------|
Db|-------------------------------------------------|
Ab|-0--0------0--0-0-------0-0-0-----0------0h2h3h4-|
Eb|-------------------------------------------------|

Eb|---------------------------------------------17bh/~---16bh/~----|
Bb|----------------------------------------------------------------|
Gb|-14bh/---\p12h14~-----------------------------------------------|
Db|----------------------------------------------------------------|
Ab|----------------------------------------------------------------|
Eb|----------------------------------0\----------------------------|

Eb|---------------------------------------------18bh/~---17bh/~----|
Bb|----------------------------------------------------------------|
Gb|----------------------------------------------------------------|
Db|----------------------------------------------------------------|
Ab|----------------------------------------------------------------|
Eb|----------------------------------------------------------------|

Eb|-/14~-12p11h12~-p11\9-11-p9\7h-9~-------------------------------|
Bb|----------------------------------------------------------------|
Gb|-4-----------------------------------2--------------------------|
Db|-4--------------------4--------------2--------------------------|
Ab|-2--------------------4--------------0------0-0-0--x0-0-0---00--|
Eb|----------------------2-----------------------------------------|
                                             pm-----------|
[Chorus]
Eb|-/16~-14p13h14~-p13\11-13-p11\9h-11~-|
Bb|-------------------------------------|
Gb|-------------------------------------|
Db|-------------------------------------|
Ab|-------------------------------------|
Eb|-------------------------------------|

Eb|--------------------------------------------------------|
Bb|------14------------------------------------------------|
Gb|------13------------------------------------------------|
Db|------11------------------------------------------------|
Ab|-4--4--4----4--x-4--4----4--x-4--4----4---x-4--4----4---|
Eb|--------------------------------------------------------|

Eb|-------------------------------------------------------|
Bb|-------12----------------------------------------------|
Gb|-------11----------------------------------------------|
Db|--------9----------------------------------------------|
Ab|-------------------------------------------------------|
Eb|-4--4---4----4----x-4--4----4--x-4--4----4---x-4--4----|            
Submit corrections


         lessons Hard to play? Try these video lessons and learn fast  lessons
        
↑ Back to top | Tablatures and chords for acoustic guitar and electric guitar, ukulele, drums are parodies/interpretations of the original songs. You may use it for private study, scholarship, research or language learning purposes only