» » »

Vagabond - Tabs

Artists:  A B C D E F G H I J K L M N O P Q R S T U V W X Y Z # 

Tabs

(ver. 1) Click to play this song!
Vagabond
 Rating:
4.3/5 (24 votes)

  lessons Tabs too difficult? Try these video lessons and learn fast
 
                
[Intro]  
Eb|---------------------------------------------------------|
Bb|-5~----5/6~----6\----1---1/3-----------------------------|
Gb|-----------------------------2~--2/5~--------2-2-2-0-0-2-|
Db|---------------------------------------------------------|
Ab|---------------------------------------------------------|
Eb|---------------------------------------------------------|

 [Pre-chorus] 
Eb|-------------------------------------------------------------------|
Bb|-------------------------------------------------------------------|
Gb|-5-x-x-5-x-x-5-x-x-5-x-x-5-x-x-x-7-x-x-5-x-x-5-x-x-5-x-x-5-x-x-5-x-|
Db|-------------------------------------------------------------------|
Ab|-------------------------------------------------------------------|
Eb|-------------------------------------------------------------------|

Eb|--------------------------------------|
Bb|--------------------------------------|
Gb|-5-x-x-5-x-x-5-x-x-5-x-x-5-x-x--------|
Db|--------------------------------------|
Ab|--------------------------------------|
Eb|--------------------------------3--1--|

 [Chorus
Eb|--------------------------------------5-----6-----5-----6---6---|
Bb|-5-----6-----5-----3-----5---5--------6-----6-----6-----6---6---|
Gb|-5-5-5-5-5-5-5-5-5-5-5-5-5-5-5-5-x\-----2-2---2-2---2-2---2---2-|
Db|----------------------------------------------------------------|
Ab|----------------------------------------------------------------|
Eb|----------------------------------------------------------------|

Eb|-5-----2-----5-----2-----5---2---1-----0-----0h1-----1---1---|
Bb|-4-4-4-4-4-4-4-4-4-4-4-4-4-4-4-4-1-1-1-1-1-1-----1-1-1---1---|
Gb|-------------------------------------------------------------|
Db|-------------------------------------------------------------|
Ab|-------------------------------------------------------------|
Eb|-------------------------------------------------------------|

Eb|--------------------------------------5-----6-----5-----6---6---|
Bb|-5-----6-----5-----3-----5---5--------6-----6-----6-----6---6---|
Gb|-5-5-5-5-5-5-5-5-5-5-5-5-5-5-5-5-x\-----2-2---2-2---2-2---2---2-|
Db|----------------------------------------------------------------|
Ab|----------------------------------------------------------------|
Eb|----------------------------------------------------------------|
  
Eb|-5-----2-----5-----2-----5---2-----------------|
Bb|-4-4-4-4-4-4-4-4-4-4-4-4-4-4-4-------------1~--|
Gb|-----------------------------------------------|
Db|-------------------------------xx-0----0h2-----|
Ab|-----------------------------------------------|
Eb|-----------------------------------------------|

Eb|--------------------------------------|
Bb|-5~----5/6~----6\----1----/8~---------|
Gb|--------------------------------------|
Db|--------------------------------------|
Ab|----------------------------------x/\-|
Eb|--------------------------------------|

 [Pre-chorus] 
Eb|-------------------------------------------------------------------|
Bb|-------------------------------------------------------------------|
Gb|-5-x-x-5-x-x-5-x-x-5-x-x-5-x-x-x-7-x-x-5-x-x-5-x-x-5-x-x-5-x-x-5-x-|
Db|-------------------------------------------------------------------|
Ab|-------------------------------------------------------------------|
Eb|-------------------------------------------------------------------|

Eb|--------------------------------------|
Bb|--------------------------------------|
Gb|-5-x-x-5-x-x-5-x-x-5-x-x-5-x-x--------|
Db|--------------------------------------|
Ab|--------------------------------------|
Eb|--------------------------------3--1--|

 [Chorus
Eb|--------------------------------------5-----6-----5-----6---6---|
Bb|-5-----6-----5-----3-----5---5--------6-----6-----6-----6---6---|
Gb|-5-5-5-5-5-5-5-5-5-5-5-5-5-5-5-5-x\-----2-2---2-2---2-2---2---2-|
Db|----------------------------------------------------------------|
Ab|----------------------------------------------------------------|
Eb|----------------------------------------------------------------|
  
Eb|-5-----2-----5-----2-----5---2---1-----0-----0h1-----1---1---|
Bb|-4-4-4-4-4-4-4-4-4-4-4-4-4-4-4-4-1-1-1-1-1-1-----1-1-1---1---|
Gb|-------------------------------------------------------------|
Db|-------------------------------------------------------------|
Ab|-------------------------------------------------------------|
Eb|-------------------------------------------------------------|

Eb|--------------------------------------5-----6-----5-----6---6---|
Bb|-5-----6-----5-----3-----5---5--------6-----6-----6-----6---6---|
Gb|-5-5-5-5-5-5-5-5-5-5-5-5-5-5-5-5-x\-----2-2---2-2---2-2---2---2-|
Db|----------------------------------------------------------------|
Ab|----------------------------------------------------------------|
Eb|----------------------------------------------------------------|
  
Eb|-5-----2-----5-----2-----5---2-----------------|
Bb|-4-4-4-4-4-4-4-4-4-4-4-4-4-4-4-------------1~--|
Gb|-----------------------------------------------|
Db|-------------------------------xx-0----0h2-----|
Ab|-----------------------------------------------|
Eb|-----------------------------------------------|

Eb|--------------------------------------|
Bb|-5~----5/6~----6\----1----/8~---------|
Gb|--------------------------------------|
Db|--------------------------------------|
Ab|----------------------------------x/\-|
Eb|--------------------------------------|

 [Interlude]
Eb|------------------------------------------------------------------|
Bb|-3h5---3-----5-----3-----3h5-------------3h5---------3---3h5-5-5--|
Gb|-----5---5-5---5-5---5-5-----5-5-5-5-5-5-----5-5-5-5---5----------|
Db|------------------------------------------------------------------|
Ab|------------------------------------------------------------------|
Eb|------------------------------------------------------------------|

Eb|---1-----0-----1-----0---0-0---------0h1~-/--|
Bb|---3-----1-----3-----1---1-1-----1-----------|
Bb|-----x-0---x-x---x-x-----------2-2-2-0h2~-/--|
Db|---------------------------------------------|
Ab|---------------------------------------------|
Eb|---------------------------------------------|

 [Guitar solo]
Eb|---------15~---------------------------------------------------|
Bb|-15b1/---------------------------------------------------------|
Gb|--------------------9---7~--------5-7-5-0----------------------|
Db|--------------------------------7-----------5-7-5-0------------|
Ab|------------------------------------------7-----------5-7-5----|
Eb|----------------------------------------------------8-------8~-|
                       
Eb|---------------------0-8p5-0-0-8p5-0-0-8p5-0-0-7p5-0-0-|
Bb|-----------5-8~----------------------------------------|
Gb|-------5-7---w/arm-------------------------------------|
Db|-----5-------------------------------------------------|
Ab|-5-7---------------------------------------------------|
Eb|-------------------------------------------------------|
                          pmpm    pmpm    pmpm    pmpm
Eb|-8p5-----10p8-----12p8-----10p8-------13p10-------12p10-------|
Bb|-----8-8------8-8------8-8------10-10-------10-10-------13-13-|
Gb|--------------------------------------------------------------|
Db|--------------------------------------------------------------|
Ab|--------------------------------------------------------------|
Eb|--------------------------------------------------------------|
      pmpm     pmpm     pmpm     pmpm        pmpm        pmpm
Eb|-17p13-------15p13-------17p13-------15p13-------|
Bb|-------13-13-------13-13-------13-13-------13-13-|
Gb|-------------------------------------------------|
Db|-------------------------------------------------|
Ab|-------------------------------------------------|
Eb|-------------------------------------------------|
        pmpm        pmpm        pmpm        pmpm   
                                              
Eb|-17p13-------15p13-------19p15-------17p15-------|
Bb|-------13-13-------13-13-------15-15-------15-15-|
Gb|-------------------------------------------------|
Db|-------------------------------------------------|
Ab|-------------------------------------------------|
Eb|-------------------------------------------------|

Eb|----------------------------/20-19-17-15-13-12-10-8-7-5-3-1--0^1-----|
Bb|-17-/20-\17-/20-\17-/20-\17--------------------------------------3---|
Gb|---------------------------------------------------------------------|
Db|------------------------------------------------------------------x\-|
Ab|---------------------------------------------------------------------|
Eb|---------------------------------------------------------------------|

[Pre-chorus]
Eb|------------------------------------------------------------------|
Bb|-----------------------------------------------------------6~-----|
Gb|---------------------------------2-------------------------5~-----|
Db|-5-----5-----5-----5-----5---5---2----------5--------------w/wah--|
Ab|-5-----5-----5-----5-----5---5-----0-0...---5---------------------|
Eb|---3-3---3-3---3-3---3-3---3---3--------------3-3...---1~---------|

 [Chorus
Eb|--------------------------------------5-----6-----5-----6---6---|
Bb|-5-----6-----5-----3-----5---5--------6-----6-----6-----6---6---|
Gb|-5-5-5-5-5-5-5-5-5-5-5-5-5-5-5-5-x\-----2-2---2-2---2-2---2---2-|
Db|----------------------------------------------------------------|
Ab|----------------------------------------------------------------|
Eb|----------------------------------------------------------------|
  
Eb|-5-----2-----5-----2-----5---2---1-----0-----0h1-----1---1---|
Bb|-4-4-4-4-4-4-4-4-4-4-4-4-4-4-4-4-1-1-1-1-1-1-----1-1-1---1---|
Gb|-------------------------------------------------------------|
Db|-------------------------------------------------------------|
Ab|-------------------------------------------------------------|
Eb|-------------------------------------------------------------|

Eb|--------------------------------------5-----6-----5-----6---6---|
Bb|-5-----6-----5-----3-----5---5--------6-----6-----6-----6---6---|
Gb|-5-5-5-5-5-5-5-5-5-5-5-5-5-5-5-5-x\-----2-2---2-2---2-2---2---2-|
Db|----------------------------------------------------------------|
Ab|----------------------------------------------------------------|
Eb|----------------------------------------------------------------|
  
Eb|-5-----2-----5-----2-----5---2-----------------|
Bb|-4-4-4-4-4-4-4-4-4-4-4-4-4-4-4-------------1~--|
Gb|-----------------------------------------------|
Db|-------------------------------xx-0----0h2-----|
Ab|-----------------------------------------------|
Eb|-----------------------------------------------|

Eb|--------------------------------------|
Bb|-5~----5/6~----6\----1----/8~---------|
Gb|--------------------------------------|
Db|--------------------------------------|
Ab|----------------------------------x/\-|
Eb|--------------------------------------|

Eb|-------------------------------------------------|
Bb|--------1^0------5-----3-----5-----3-----5---3---|
Gb|-----------------5-5-5-5-5-5-5-5-5-5-5-5-5-5-5-5-|
Db|-0--0h2------------------------------------------|
Ab|-------------------------------------------------|
Eb|-------------------------------------------------|

Eb|----------------------------------------------------|
Bb|-5-5-5-5-5-5-5-5-------/10--7h10p7\4-1h4p1----------|
Gb|-5-5-5-5-5-5-5-5...------------------------2--------|
Db|---------------------------------------------4-1----|
Ab|-------------------------------------------------3~-|
Eb|----------------------------------------------------|
                    
Eb|-----------------------/8---5h8p5\2-----------------|
Bb|-------------------------------------4h7p4----------|
Gb|-------------------------------------------5--------|
Db|---------------------------------------------7-4----|
Ab|-------------------------------------------------6~-|
Eb|----------------------------------------------------|

Eb|------------1-1-----------------------------------|
Bb|--------1/--1-1---5-----3-----5-----3-----5---3---|
Gb|------------------5-5-5-5-5-5-5-5-5-5-5-5-5-5-5-5-|
Db|-0--0h2-------------------------------------------|
Ab|--------------------------------------------------|
Eb|--------------------------------------------------|

Eb|-5-----6-----5-----6---6---5-----2-----5-----2-----5-----|
Bb|-6-----6-----6-----6---6---4-4-4-4-4-4-4-4-4-4-4-4-4-----|
Gb|---2-2---2-2---2-2---2---2-------------------------------|
Db|-----------------------------------------------------x/\-|
Ab|---------------------------------------------------------|
Eb|---------------------------------------------------------|

Eb|-------------------------|
Bb|----------1~-------------|
Gb|---------------------3~--|
Db|-0----2-3-----/x-----3~--|
Ab|--------------/x---------|
Eb|-------------------------|
         PMPM
 [Guitar solo] at CD time : 4'41"
Eb|-10h12h13-p12-----p10h8p11~-|
Bb|----------------------------|
Gb|----------------------------|
Db|----------------------------|
Ab|----------------------------|
Eb|----------------------------|
            
Submit corrections


         lessons Hard to play? Try these video lessons and learn fast  lessons
        
↑ Back to top | Tablatures and chords for acoustic guitar and electric guitar, ukulele, drums are parodies/interpretations of the original songs. You may use it for private study, scholarship, research or language learning purposes only