» » »

Vagabond - Tabs

Artists:  A B C D E F G H I J K L M N O P Q R S T U V W X Y Z # 

Tabs

(ver. 1) Click to play this song!
Vagabond
 Rating:
4.4/5 (7 votes)

  lessons Tabs too difficult? Try these video lessons and learn fast
 
                   [Intro]
Eb|------------5----10----13----17-17-17-17-
Bb|------------5----10----13----17-17-17-17-
Gb|------------2-----7----11----14-14-14-14-
Db|-2~-----x\-------------------------------
Ab|-----------------------------------------
Eb|-----------------------------------------

Eb|-5----10----13----17----5----10----13----17----
Eb|-5----10----13----17----5----10----13----17----
Eb|-2-----7----11----14----2-----7----11----14----
Eb|-----------------------------------------------
Eb|-----------------------------------------------
Eb|-----------------------------------------------

[Verse]
Eb|------5--------------------------------------------------------------|
Eb|------5-----------------------------------17--17-17-17---------------|
Eb|------2---------------------14--14--14-14--------------14--14--14-14-|
Eb|--~-----------14--14--14-14------------------------------------------|
Eb|---------------------------------------------------------------------|
Eb|---------------------------------------------------------------------|
                     PMPMPMPM      PMPMPMPMPM             PMPMPMPMPMPM                         
Eb|--------------------------------------------------------|
Eb|-----------------------------16--16-16-16---------------|
Eb|---------------14--14--14-14--------------14--14--14-14-|
Eb|-13--13--13-13------------------------------------------|
Eb|--------------------------------------------------------|
Eb|--------------------------------------------------------|
        PMPMPMPM      PMPMPMPMPM                 PMPMPMPM
Eb|-17--17--17-17-17--17--17-17--------------|
Eb|-17--17--17-17-17--17--17-17--------------|
Eb|------------------------------------------|
Eb|------------------------------------------|
Eb|------------------------------------------|
Eb|------------------------------------------|

[Chorus]
Eb|-5----10----13----17----5----10----13----17----|
Eb|-5----10----13----17----5----10----13----17----|
Eb|-2-----7----11----14----2-----7----11----14----|
Eb|-----------------------------------------------|
Eb|-----------------------------------------------|
Eb|-----------------------------------------------|

Eb|-14---14-15-17--\--------------13----------------14--12--|
Eb|-------------------15---15--17----17-15-15---------------|
Eb|-------------------------------------------15-14---------|
Eb|---------------------------------------------------------|
Eb|---------------------------------------------------------|
Eb|---------------------------------------------------------|
 
Eb|-------------------------------------------------------------------------|
Eb|--------------------------------------------------------|> with wah-pedal|
Eb|-12~-------------------------------------------------14-14-14-14-14-14---|
Eb|-------------------------------------------------------------------------|
Eb|-------------------------------------------------------------------------|
Eb|-------------------------------------------------------------------------|

[Verse]
Eb|------5--------------------------------------------------------------|
Eb|------5-----------------------------------17--17-17-17---------------|
Eb|------2---------------------14--14--14-14--------------14--14--14-14-|
Eb|--~-----------14--14--14-14------------------------------------------|
Eb|---------------------------------------------------------------------|
Eb|---------------------------------------------------------------------|
                     PMPMPMPM      PMPMPMPMPM             PMPMPMPMPMPM                         
Eb|--------------------------------------------------------|
Eb|-----------------------------16--16-16-16---------------|
Eb|---------------14--14--14-14--------------14--14--14-14-|
Eb|-13--13--13-13------------------------------------------|
Eb|--------------------------------------------------------|
Eb|--------------------------------------------------------|
        PMPMPMPM      PMPMPMPMPM                 PMPMPMPM
Eb|-17--17--17-17-17--17--17-17--------------|
Eb|-17--17--17-17-17--17--17-17--------------|
Eb|------------------------------------------|
Eb|------------------------------------------|
Eb|------------------------------------------|
Eb|------------------------------------------|

[Chorus]
Eb|-5----10----13----17----5----10----13----17----|
Eb|-5----10----13----17----5----10----13----17----|
Eb|-2-----7----11----14----2-----7----11----14----|
Eb|-----------------------------------------------|
Eb|-----------------------------------------------|
Eb|-----------------------------------------------|

Eb|-14---14-15-17--\--------------13----------------14--12--|
Eb|-------------------15---15--17----17-15-15---------------|
Eb|-------------------------------------------15-14---------|
Eb|---------------------------------------------------------|
Eb|---------------------------------------------------------|
Eb|---------------------------------------------------------|
 
Eb|-------------------------------------------------------------------------|
Eb|--------------------------------------------------------|> with wah-pedal|
Eb|-12~-------------------------------------------------14-14-14-14-14-14---|
Eb|-------------------------------------------------------------------------|
Eb|-------------------------------------------------------------------------|
Eb|-------------------------------------------------------------------------|
   
Eb|-5-4---------|
Eb|-----5-4-2-1-|
Eb|-------------|
Eb|-------------|
Eb|-------------|
Eb|-------------|
  PMPMPMPMPMPMPM

  CD time : 2'45"~
  fade in with volume pedal or violin technique
Eb|--------------------------------|
Eb|-7------5-----------------------|
Eb|---------------7----11\6-----4--|
Eb|--------------------------------|
Eb|--------------------------------|
Eb|--------------------------------|

Eb|----------------------------------------------------------------------|
Eb|----------------------------------------------------------------------|
Eb|-------------------------------------0--------------------------------|
Eb|-------------------------1---2---4-------2~----0^2---x\-------/2---\--|
Eb|-------------1---2---4------------------------------------------------|
Eb|-3-0-5-0-3-0---3---3---3---3---3---3---3------------------------------|

[Chorus]
Eb|-5----10----13----17----5----10----13----17----|
Eb|-5----10----13----17----5----10----13----17----|
Eb|-2-----7----11----14----2-----7----11----14----|
Eb|-----------------------------------------------|
Eb|-----------------------------------------------|
Eb|-----------------------------------------------|

Eb|-14---14-15-17--\--------------13----------------14--12--|
Eb|-------------------15---15--17----17-15-15---------------|
Eb|-------------------------------------------15-14---------|
Eb|---------------------------------------------------------|
Eb|---------------------------------------------------------|
Eb|---------------------------------------------------------|
 
Eb|-------------------------------------------------------------------------|
Eb|--------------------------------------------------------|> with wah-pedal|
Eb|-12~-------------------------------------------------14-14-14-14-14-14---|
Eb|-------------------------------------------------------------------------|
Eb|-------------------------------------------------------------------------|
Eb|-------------------------------------------------------------------------|
            
Submit corrections


         lessons Hard to play? Try these video lessons and learn fast  lessons
        
↑ Back to top | Tablatures and chords for acoustic guitar and electric guitar, ukulele, drums are parodies/interpretations of the original songs. You may use it for private study, scholarship, research or language learning purposes only