» » »

Vagabond - Do You Like It Tabs

Artists:  A B C D E F G H I J K L M N O P Q R S T U V W X Y Z # 

Do You Like It Tabs

(ver. 1) Click to play this song!
Vagabond
 Rating:
4.3/5 (29 votes)

 Do You Like It lessons Tabs too difficult? Try these video lessons and learn fast
 
                  [Intro]
     .              .              .              .
Eb|-14-12---12-12--14-12---12-12--14-12---12-12--10-8---8-8-|
Bb|---------------------------------------------------------|
Gb|-14-12---12-12--14-12---12-12--14-12---12-12--11-9---9-9-|
Db|---------------------------------------------------------|
Ab|-------------0---0----------0---0----------0---0-------0-|
Eb|---------------------------------------------------------|
   .              .              .              .
Eb|-14-12---12-12--14-12---12-12--14-12---12-12--10-|
Bb|-------------------------------------------------|
Gb|-14-12---12-12--14-12---12-12--14-12---12-12--11-|
Db|-------------------------------------------------|
Ab|--0----------0---0----------0---0----------0---0-|
Eb|-------------------------------------------------|

  [Verse]
Eb|-----------------------------------------------------------8-8-8-8--------|
Bb|-8----8---8-----8-8-----7----7---7-----7-7-----7----7------7-7-7-7--------|
Gb|-5----5---5-----5-5-----5----5---5-----5-5-----5----5---------------------|    x3
Db|--------------------------------------------------------------------------|
Ab|--------0-----0-----0-0--------0-----0-----0-0--------0--0---------0--0-0-|
Eb|--------------------------------------------------------------------------|

Eb|-------------------------------------------------------|
Bb|----------3------------------3---3-3-3-3-6-------5-----|
Gb|-2--------2--------2---------2---2-2-2-2-5-------4-----|
Db|-2--------0--------2------------PMPMPMPM---------------|
Ab|-0-----x\-------x\-0------x\---------------------------|
Eb|-------------------------------------------------------|
   .              .              .              .
Eb|-14-12---12-12--14-12---12-12--14-12---12-12--10-8---|
Bb|-----------------------------------------------------|
Gb|-14-12---12-12--14-12---12-12--14-12---12-12--11-9---|
Db|-----------------------------------------------------|
Ab|-----------------------------------------------------|
Eb|-----------------------------------------------------|

  [Chorus]
Eb|---------------------------------------------|
Bb|-----3--3-3-3-3--3---------5--5-----5--5-----|
Gb|-----2--2-2-2-2--2---------4--4-----4--4-----|
Db|----------PMPM-------------------------------|
Ab|------------------PMPM---------PMPM-----PMPM-|
Eb|-2-----------------2-2-4--------4-4------4-4-|

Eb|------------------------------------------|
Bb|---5--5---5--5---5--5---5--5-----5--5-----|
Gb|---3--3---3--3---3--3---3--3-----3--3-----|
Db|------------------------------------------|
Ab|-------PM-----PM-----PM-----PMPM-----PMPM-|
Eb|-3------3------3------3------3-3------3-3-|

Eb|---------------------------------------------|
Bb|-----5--5-----5--5---------7--7-----7--7-----|
Gb|-----4--4-----4--4---------6--6-----6--6-----|
Db|---------------------------------------------|
Ab|---------PMPM-----PMPM---------PMPM-----PMPM-|
Eb|-4--------4-4------4-4-6--------6-6------6-6-|

Rb|----------------------------------------|
Bb|-----7--7-----7--7-----7--7-----7--7~\--|
Gb|-----6--6-----6--6-----6--6-----6--6~\--|
Db|----------------------------------------|
Ab|-PMPM----PMPM-----PMPM-----PMPM---------|
Eb|-5-5------5-5------5-5------5-5---------|

Eb|-.----------.----------.----------.---------|
Bb|-7-5---5-5--7-5---5-5--7-5---5-5--3-1---1-1-|
Gb|--------------------------------------------|
Db|-7-5---5-5--7-5---5-5--7-5---5-5--4-2---2-2-|
Ab|--------------------------------------------|
Eb|--------------------------------------------|
   .              .              .              
Eb|-14-12---12-12--14-12---12-12--14-12---12-12--10-|
Bb|-------------------------------------------------|
Gb|-14-12---12-12--14-12---12-12--14-12---12-12--11-|
Db|-------------------------------------------------|
Ab|-------------------------------------------------|
Eb|-------------------------------------------------|

  [2nd Verse]  
Eb|-----------------------------------------------------------8-8-8-8--------|
Bb|-8----8---8-----8-8-----7----7---7-----7-7-----7----7------7-7-7-7--------|
Gb|-5----5---5-----5-5-----5----5---5-----5-5-----5----5---------------------|
Db|--------------------------------------------------------------------------|    x 3
Ab|--------0-----0-----0-0--------0-----0-----0-0--------0--0---------0--0-0-|
Eb|--------------------------------------------------------------------------|

Eb|-----------------------------------------------------------|
Bb|----------3----------------------3---3-3-3-3-6-------5-----|
Gb|-2--------2--------2-------------2---2-2-2-2-5-------4-----|
Db|-2--------0--------2----------------PMPMPMPM---------------|
Ab|-0-----x\-------x\-0-----0^3--x\---------------------------|
Eb|-----------------------------------------------------------|
     .              .              .              
Eb|-14-12---12-12--14-12---12-12--14-12---12-12--10-8---|
Bb|-----------------------------------------------------|
Gb|-14-12---12-12--14-12---12-12--14-12---12-12--11-9---|
Db|-----------------------------------------------------|
Ab|-----------------------------------------------------|
Eb|-----------------------------------------------------|

  [2nd Chorus]
Eb|---------------------------------------------|
Bb|-----3--3-3-3-3--3---------5--5-----5--5-----|
Gb|-----2--2-2-2-2--2---------4--4-----4--4-----|
Db|----------PMPM-------------------------------|
Ab|------------------PMPM---------PMPM-----PMPM-|
Eb|-2-----------------2-2-4--------4-4------4-4-|

Eb|------------------------------------------|
Bb|---5--5---5--5---5--5---5--5-----5--5-----|
Gb|---3--3---3--3---3--3---3--3-----3--3-----|
Db|------------------------------------------|
Ab|-------PM-----PM-----PM-----PMPM-----PMPM-|
Eb|-3------3------3------3------3-3------3-3-|

Eb|---------------------------------------------|
Bb|-----5--5-----5--5---------7--7-----7--7-----|
Gb|-----4--4-----4--4---------6--6-----6--6-----|
Db|---------------------------------------------|
Ab|---------PMPM-----PMPM---------PMPM-----PMPM-|
Eb|-4--------4-4------4-4-6--------6-6------6-6-|

Eb|----------------------------------------|
Bb|-----7--7-----7--7-----7--7-----7--7~\--|
Gb|-----6--6-----6--6-----6--6-----6--6~\--|
Db|----------------------------------------|
Ab|-PMPM----PMPM-----PMPM-----PMPM---------|
Eb|-5-5------5-5------5-5------5-5---------|

Eb|---------------------------------------------|
Bb|-----7--7-----7--7---------9--9-----9--9-----|
Gb|-----6--6-----6--6---------8--8-----8--8-----|
Db|---------------------------------------------|
Ab|---------PMPM-----PMPM---------PMPM-----PMPM-|
Eb|-6--------6-6------6-6-8--------8-8------8-8-|

Eb|----------------------------------------|
Bb|-----7--7-----7--7-----7--7-----7--7~\--|
Gb|-----6--6-----6--6-----6--6-----6--6~\--|
Db|----------------------------------------|
Ab|-PMPM----PMPM-----PMPM-----PMPM---------|
Eb|-7-7------7-7------7-7------7-7---------|

Eb|-----------------------------------------------14-\-------------|
Bb|-7-------7-7-7-7-7-7--5-3~-----5-3~----10b1/~-------------------|
Gb|-6-------6-6-6-6-6-6--4-2~-----4-2~-----------------------------|
Db|-4-------4-4-4-4-4-4--2-0~-----2-0~-----------------------------|
Ab|--------------------------------------------------------2-0-----|
Eb|------------------------------------------------------------3-2-|

  [Guitar Solo]                                     
Eb|---------------------------.------.--.--.--------------12-14-15-|
Bb|-----------------------.-.-8-8bq~-8-10-10--.--.-15-15-----------|
Gb|-----------------------9-9----------------11-11-----------------|
Db|--?????-----------x-x-------------------------------------------|
Ab|----------------------------------------------------------------|
Eb|-----------3~---0-----------------------------------------------|

Eb|-14h15p14p12----12-14-15-14h15p14p12------------14-15-17-17b1/~--|
Bb|-------------15----------------------15------15------------------|
Gb|-----------------------------------------14----------------------|
Db|-----------------------------------------------------------------|
Ab|-----------------------------------------------------------------|
Eb|-----------------------------------------------------------------|

 [2nd Chorus]
Eb|---------------------------------------------|
Bb|-----3--3-3-3-3--3---------5--5-----5--5-----|
Gb|-----2--2-2-2-2--2---------4--4-----4--4-----|
Db|----------PMPM-------------------------------|
Ab|------------------PMPM---------PMPM-----PMPM-|
Eb|-2-----------------2-2-4--------4-4------4-4-|

Eb|------------------------------------------|
Bb|---5--5---5--5---5--5---5--5-----5--5-----|
Gb|---3--3---3--3---3--3---3--3-----3--3-----|
Db|------------------------------------------|
Ab|-------PM-----PM-----PM-----PMPM-----PMPM-|
Eb|-3------3------3------3------3-3------3-3-|

Eb|---------------------------------------------|
Bb|-----5--5-----5--5---------7--7-----7--7-----|
Gb|-----4--4-----4--4---------6--6-----6--6-----|
Db|---------------------------------------------|
Ab|---------PMPM-----PMPM---------PMPM-----PMPM-|
Eb|-4--------4-4------4-4-6--------6-6------6-6-|

Eb|----------------------------------------|
Bb|-----7--7-----7--7-----7--7-----7--7~\--|
Gb|-----6--6-----6--6-----6--6-----6--6~\--|
Db|----------------------------------------|
Ab|-PMPM----PMPM-----PMPM-----PMPM---------|
Eb|-5-5------5-5------5-5------5-5---------|

Eb|---------------------------------------------|
Bb|-----7--7-----7--7---------9--9-----9--9-----|
Gb|-----6--6-----6--6---------8--8-----8--8-----|
Db|---------------------------------------------|
Ab|---------PMPM-----PMPM---------PMPM-----PMPM-|
Eb|-6--------6-6------6-6-8--------8-8------8-8-|

Eb|----------------------------------------|
Bb|-----7--7-----7--7-----7--7-----7--7~\--|
Gb|-----6--6-----6--6-----6--6-----6--6~\--|
Db|----------------------------------------|
Ab|-PMPM----PMPM-----PMPM-----PMPM---------|
Eb|-7-7------7-7------7-7------7-7---------|

Eb|-----------------------------------------------14-\-------------|
Bb|-7-------7-7-7-7-7-7--5-3~-----5-3~----10b1/~-------------------|
Gb|-6-------6-6-6-6-6-6--4-2~-----4-2~-----------------------------|
Db|-4-------4-4-4-4-4-4--2-0~-----2-0~-----------------------------|
Ab|--------------------------------------------------------2-0-----|
Eb|------------------------------------------------------------3-2-|

[Outro]
Eb|-/17~-------------/17-17/19~-------------19-------------------------------|
Bb|--------15-17--15-------------17-19--17---------15--17--17~--15-----------|
Gb|--------------------------------------------15~------------------15--15~--|
Db|--------------------------------------------------------------------------|
Ab|--------------------------------------------------------------------------|
Eb|--------------------------------------------------------------------------|

Eb|-17h18p17~--18-19~-------------19--------------------------|
Bb|--------------------17-19--17-----------19-21--19----------|
Gb|----------------------------------16/18------------18\17~--|
Db|-----------------------------------------------------------|
Ab|-----------------------------------------------------------|
Eb|-----------------------------------------------------------|

Eb|--------17-18gh/--18u-18u-18u~--\-------------|
Bb|-17--19---------------------------19-p17------|
Gb|------------------------------------------17~-|
Db|----------------------------------------------|
Ab|----------------------------------------------|
Eb|----------------------------------------------|

Eb|-----14-16--14----------16--18--18--16----------14--16-19-b1/-19u-19u-19u~-|
Bb|-14-------------14-/16------------------16-15~-----------------------------|
Gb|-------------------------------------------PH------------------------------|
Db|---------------------------------------------------------------------------|
Ab|---------------------------------------------------------------------------|
Eb|---------------------------------------------------------------------------|

Eb|-----------------------------------------------------------------|
Bb|-----------------------------------------------------------------|
Gb|-----------------------------------------------------------------|   x3
Db|-.---------------------------------------------------------------|
Ab|-2--2-2-5p2-2-2--2--2-5p2-2-2--2-2-2-2-5p2-2-2--2-2-2-2-5p2-2-2--|
Eb|-----------------------------------------------------------------|

Eb|------------------|
Bb|-9----------------|
Gb|----11-11-11-11---|
Db|----12-12-12-12---|
Ab|------------------|
Eb|------------------|

Eb|-------------------------------------------------------------|
Bb|-------------------------------------------------------------|
Gb|-------------------------------------------------------------|
Db|-------------------------------------------------------------|
Ab|-2-2-2-2-5p2-2-2--2--2-5p2-2---2-2-2-2-5p2-2-2--2--2-2-1-0---|
Eb|-----------------------------------------------------------3-|

Eb|----------------------------------------------------------|
Bb|----------------------------------------------------------|
Gb|----------------------------------------------------------|
Db|----------------------------------------------------------|
Ab|----------------------------------------------------------|
Eb|-0-0-0-0-3p0-0-0--0--0-3p0-----0-0-0-0-3p0-0-0--0--0-3p0--|

Eb|----------------------------------------------------------|
Bb|----------------------------------------------------------|
Gb|----------------------------------------------------------|
Db|----------------------------------------------------------|
Ab|----------------------------------------------------------|
Eb|-0---0-0-3p0-0-0--0--0-3p0-----0---0-0-3p0-0-0--0--0-3p0--|

Eb|------------------------------------------------------------|
Bb|------------------------------------------------------------|
Gb|------------------------------------------------------------|
Db|------------------------------------------------------------|
Ab|------------------------------------------------------------|
Eb|-0---0-0-3p0-0-0--0--0-3p0-----0--0--0-3p0--0---0---0--3p0--|

Eb|-------------------------------------------------------|
Bb|-------------------------------------------------------|
Gb|-------------------------------------------------------|
Db|-------------------------------------------------------|
Ab|-------------------------------------------------------|
Eb|-0---0-0-3p0---0--0--0-3p0-----0---0-0-3p0--0--0--0-0--|            
Submit corrections


        Do You Like It lessons Hard to play? Try these video lessons and learn fast Do You Like It lessons
        
↑ Back to top | Tablatures and chords for acoustic guitar and electric guitar, ukulele, drums are parodies/interpretations of the original songs. You may use it for private study, scholarship, research or language learning purposes only