» » »

Vagabond - Tabs

Artists:  A B C D E F G H I J K L M N O P Q R S T U V W X Y Z # 

Tabs

(ver. 1) Click to play this song!
Vagabond
 Rating:
4.3/5 (29 votes)

  lessons Tabs too difficult? Try these video lessons and learn fast
 
                [1st Verse]
E|-----------------------------------------------12--x-12-------|
B|----------------------------------------3--2---10--x-10----2--|
G|--------2--------------------2-----2----2--2---------------2--|
D|--------2--2--2--4--x--2--4-----------------------------------|
A|--------0--0--0--0--x--0-----4--------------------------------|
E|-3bq/---------------------------------------------------------|

 Right
E|------------12---------12--12-----|
B|--------10--10---------10--10-----|
G|--2------9-------7--6-------------|
D|-----------------7--7-------------|
A|----------------------------------|
E|----------------------------------|

   Left
E|----------------------------------|
B|----------------------------------|
G|------------------------------2---|
D|------------------------------2---|
A|------------------------------0---|
E|----------------------------------|

[Pre-chorus]
 Right 
E|----------------------------5--5--5----------------|
B|-2--2--2--2--5--5--5--5--2--5--5--5--2--2--2--2----|
G|-2--2--2--2--4--4--4--4--2-----------2--2--2--2----|
D|---------------------------------------------------|
A|---------------------------------------------------|
E|---------------------------------------------------|

  Center
E|--12----------------------------------12--12--12---|
B|--10----------------------------------10--10--10---|
G|---------------------------------------------------|
D|---------------------------------------------------|
A|---------------------------------------------------|
E|---------------------------------------------------|

   Left
E|---------------------------------------------------|
B|---------------------------------------------------|
G|---------------------------------------------------|
D|-2--2--2--2--2--2--2--2--------------2--2--2--2----|
A|-0--0--0--0--------------4--4--4--4--0--0--0--0----|
E|-------------4--4--4--4--2--2--2--2----------------|

[Pre-chorus]
E|------------------------------------------------------|
B|------------------------------------------------------|
G|------------------------------------------------------|
D|-2--x-4---2----4-------------------2--x-2-4---2----2--|
A|-0--x-0---0----0---2--x-4--2---2-4-0--x-0-0---0----0--|
E|-------------------0--x-0--0---0-0--------------------|

[Chorus]
E|---------------------------------------------------------------------|
B|---------------------------------------------------------------------|
G|---------------------------------------------------------------------|
D|-----------------------------------------------------0-------2-------|
A|-0----------------------------------2~-------------------------------|
E|------------------2~-------------------------------------------------|

   Right
E|----------5-5-5-5-5-5-5-5-x5-5-5-5\---------5-5-5-5--5-5-5-5---------|
B|----------5-5-5-5-2-2-2-2-x2-2-2-2\---------5-5-5-5--5-5-5-5---------|
G|-------------------------------------------------------------4-4-4-4-|
D|-------------------------------------------------------------4-4-4-4-|
A|---------------------------------------------------------------------|
E|---------------------------------------------------------------------|

E|----------------------------------------------------------------------|
B|----------------------------------------------------------------------|
G|----------------------------------------------------------------------|
D|--------------------------------4-------------------------------------|
A|-4------------------------------2-----4-----2-4-5--4-5-6--5-6-7---x/\-|
E|--------------2~------------------------------------------------------|

   Right
E|--------------5-5-5-5-x5-5-5-5\--------------------------------------|
B|--------------2-2-2-2-x2-2-2-2\--------------------------------------|
G|---------------------------------------------------------------------|
D|---------------------------------------------------------------------|
A|---------------------------------------------------------------------|
E|---------------------------------------------------------------------|

[2nd Verse]
E|-------------------------------12--x-12--------------12--x-12--|
B|-------------------------------10--x-10--------------10--x-10--|
G|------------------2-----2-4---------------7---6----------------|
D|---x-2-4--x-2--4--------2-4---------------7---7----------------|
A|---x-0-0--x-0-----4----pm--------------------------------------|
E|---------------------------------------------------------------|

E|----------------------------------------12-------------------------|
B|------------------------------------10--10-------------------------|
G|----------------2--------------------9------7--6-------------------|
D|-2--x-4-2--x-x-----2--x-4-2--x-x-4----------7--7-----2--2----2--2--|
A|-0--x-0-0--x-x--4--0--x-0-0--x-x-0-------------------0--0----0--0--|
E|-------------------------------------------------------------------|

[Pre-chorus]
E|------------------------------------------------------|
B|------------------------------------------------------|
G|------------------------------------------------------|
D|-2--x-4---2----4-------------------2--x-2-4---2----2--|
A|-0--x-0---0----0---2--x-4--2---2-4-0--x-0-0---0----0--|
E|-------------------0--x-0--0---0-0--------------------|

[2nd Chorus]
E|-----------------------------------------------------------------|
B|-----------------------------------------------------------------|
G|-----------------------------------------------------------------|
D|-------------------------------------------------0-------2-------|
A|-0-------------------------------2~------------------------------|
E|---------------2~------------------------------------------------|

    Right
E|-5-5-5-5-5-5-5-5-5-5-5-x5-5-5-5\-5-5-5-5-5-5-5-5-5-5-5-5---------|
B|-5-5-5-5-5-5-5-2-2-2-2-x2-2-2-2\-5-5-5-5-5-5-5-5-5-5-5-5---------|
G|-----------------------------------------------------------------|
D|-----------------------------------------------------------------|
A|-----------------------------------------------------------------|
E|-----------------------------------------------------------------|

E|---------------------------------7----9----7-9-10--9-10-11--10-11-12--|
B|----------------------------------------------------------------------|
G|----------------------------------------------------------------------|
D|----------------------------------------------------------------------|
A|-4--------------------------------------------------------------------|
E|---------------2~-----------------------------------------------------|

   Right
E|-5-5-5-5-5-5-5-5-5-5-5-x5-5-5-5\--------------------------------------|
B|-5-5-5-5-5-5-5-2-2-2-2-x2-2-2-2\-7----9----7-9-10--9-10-11--10-11-12--|
G|----------------------------------------------------------------------|
D|----------------------------------------------------------------------|
A|----------------------------------------------------------------------|
E|----------------------------------------------------------------------|

[Guitar solo]
E|-------15-15--14-15\--x-xx--------------------5--------------------|
B|-------14-14--13-14\--x-xx----------------------8-5----------------|
G|---------------------------12-12-----7b1/--7u-------7-7b1/-\p5-7-5-|
D|---------------------------12-12-----------------------------------|
A|-5-/---------------------------------------------------------------|
E|-------------------------------------------------------------------|

E|-------------------------------------------------------5------------|
B|---------------------------------------------------------8-5--------|
G|-7--5-6------------------------------------------------------7bq/-5-|
D|--------7--5-------------------------------------------------------|
A|--------------7--6--5-----5--b1/-\~-----5-7~--7^5-0-----------------|
E|-----------------------8--------------8-----------------------------|

E|------------------------------------10b1/-\-10---10b/-10b/--|
B|------5------5------5~-------5~/\-----------10---10b/-10b/--|
G|-7b1/---7b1/---7b1/-----7b1/--------------------------------|
D|------------------------------------------------------------|
A|------------------------------------------------------------|
E|------------------------------------------------------------|

E|----------------------------------/7--------/7--------|
B|-12-12bh/--10---12bh/-12bh/~---------10-\5-----10-\5--|
G|-----------10-----------------------------------------|
D|------------------------------------------------------|
A|------------------------------------------------------|
E|------------------------------------------------------|

E|-/9--7----/7--------/7--------/7--------/9--12-9-----|
B|-------------10-\5-----10-\5-----10-\5-----------12--|
G|--------9--------------------------------------------|
D|-----------------------------------------------------|
A|-----------------------------------------------------|
E|-----------------------------------------------------|

E|-\14--17-14-----------17~--|
B|------------17--17b1/------|
G|---------------------------|
D|---------------------------|
A|---------------------------|
E|---------------------------|

[Chorus]
E|---------------------------------------------------------------------|
B|---------------------------------------------------------------------|
G|---------------------------------------------------------------------|
D|-----------------------------------------------------0-------2-------|
A|-0----------------------------------2~-------------------------------|
E|------------------2~-------------------------------------------------|

   Right
E|----------5-5-5-5-5-5-5-5-x5-5-5-5\---------5-5-5-5--5-5-5-5---------|
B|----------5-5-5-5-2-2-2-2-x2-2-2-2\---------5-5-5-5--5-5-5-5---------|
G|-------------------------------------------------------------4-4-4-4-|
D|-------------------------------------------------------------4-4-4-4-|
A|---------------------------------------------------------------------|
E|---------------------------------------------------------------------|

E|----------------------------------------------------------------------|
B|----------------------------------------------------------------------|
G|----------------------------------------------------------------------|
D|--------------------------------4-------------------------------------|
A|-4------------------------------2-----4-----2-4-5--4-5-6--5-6-7---x/\-|
E|--------------2~------------------------------------------------------|

   Right
E|--------------5-5-5-5-x5-5-5-5\--------------------------------------|
B|--------------2-2-2-2-x2-2-2-2\--------------------------------------|
G|---------------------------------------------------------------------|
D|---------------------------------------------------------------------|
A|---------------------------------------------------------------------|
E|---------------------------------------------------------------------|

E|----------------------------/7--------/7--------/9--7----/7-------|
B|-------------------------------10-\5-----10-\5--------------10-\5-|
G|-------------------------------------------------------9----------|
D|------------------------------------------------------------------|   x3
A|-7-8-9--9-10-11--9-11-12------------------------------------------|
E|------------------------------------------------------------------|

E|-/7--------/7--------/9--12-9-----\14--17-14-----------17~--|
B|----10-\5-----10-\5-----------12-------------17--17b1/------|
G|------------------------------------------------------------|
D|------------------------------------------------------------|
A|------------------------------------------------------------|
E|------------------------------------------------------------|            
Submit corrections


         lessons Hard to play? Try these video lessons and learn fast  lessons
        
↑ Back to top | Tablatures and chords for acoustic guitar and electric guitar, ukulele, drums are parodies/interpretations of the original songs. You may use it for private study, scholarship, research or language learning purposes only