» » »

Vagabond - Chords

Artists:  A B C D E F G H I J K L M N O P Q R S T U V W X Y Z # 

Chords

(ver. 1) Click to play this song!
Vagabond
 Rating:
4.3/5 (10 votes)

  lessons Tabs too difficult? Try these video lessons and learn fast
 
                [Intro]
Eb|-----------------------------------------------|
Bb|-----------------------------------------------|
Gb|-----------------------------------------------|
Db|-----0-2---------0--2--------0-2---------0-2---|   x4
Ab|-0-3------0--3~-------0--0-3------0--3~------0-|
Eb|-------------*-----------------------*---------|
    PM--------|     PM----------------|     PM---|
  CD Time (0'32")
Eb|---------------------------------------------------|
Bb|---------------------------------------------------|
Gb|-------7-9~\---------7-9~\-------------7-9~\-------|
Db|-7-7-9---------7-7-9-------------7-7-9-------------|
Ab|---------------------------------------------------|
Eb|----------------------------0-0---------------0-0--|
    PM            PM                PM
Eb|-----------------------------------------------------------|
Bb|--------------8-7------------------------8-7---------------|
Gb|-------7-9~-------9-7---9---------7-9~-------9-7----7------|
Db|-7-7-9----------------------7-7-9----------------10---10~--|
Ab|-----------------------------------------------------------|
Eb|-----------------------------------------------------------|
    PM                         PM                   PM
Eb|-----------------------------------------------------------|
Bb|--------------8-7------------------------8-7---------------|
Gb|-------7-9~-------9-7---9---------7-9~-------9-7----7------|
Db|-7-7-9----------------------7-7-9----------------10---10~--|
Ab|-----------------------------------------------------------|
Eb|-----------------------------------------------------------|
    PM                         PM                   PM

[Verse]
Eb|-----------------------------------------------|
Bb|-----------------------------------------------|
Gb|-----------------------------------------------|
Db|-----0-2---------0--2--------0-2---------0-2---|  x3
Ab|-0-3------0--3~-------0--0-3------0--3~------0-|
Eb|-------------*-----------------------*---------|
    PM--------|     PM----------------|     PMPMPM

[Chorus]
Eb|-----------------------------------------------------------|
Bb|------------------8-7--------------------8-7---------------|
Gb|-PM--------7-9~-------9-7---9----7--7--------9-7----7------|
Db|--7--7--9------------------------7--7------------10---10~--|
Ab|---------------------------------5--5------------PM--------|
Eb|-----------------------------------------------------------|
    PM                                              PM
Eb|----------10-12~----------------15-15~---------------------|
Bb|-10-10-12---------------7---8------------------------------|
Gb|-----------------------------------------------------------|
Db|-----------------------------------------------------------|
Ab|-----------------------------------------------------------|
Eb|-----------------------------------------------------------|
    PM
Eb|----------------------------------------|
Bb|------------------8-7-------------------|
Gb|-----------7-9~-------9-7---9----7--7---|
Db|--7--7--9------------------------7--7---|
Ab|---------------------------------5--5---|
Eb|----------------------------------------|
    PM
Eb|----------10-12~-------10--12---15-15~--|
Bb|-10-10-12-------------------------------|
Gb|----------------------------------------|
Db|----------------------------------------|
Ab|----------------------------------------|
Eb|----------------------------------------|
    PM
Eb|-------------------------------------------------------|
Bb|-------------------------------------------------------|
Gb|-------------------------------------------------------|
Db|-5-4--2-0--4-2--0----2-0-------------------------------|
Ab|------------------3-------3-2----3-2-0---3-2-0---------|
Eb|-------------------------------2-------3-------3-0-2~--|
           PM        PM        PM--------------------|
Eb|---------------------------------------|
Bb|---------------------------------------|
Gb|-7-7~----------------------------------|
Db|-7-7~--------2--2----------------------|
Ab|-5-5~---\---------4--4-5--5-2--2-5/7~--|
Eb|---------------------------------------|
                PM----------------| 

[Verse]
Eb|-----------------------------------------------|
Bb|-----------------------------------------------|
Gb|-----------------------------------------------|
Db|-----0-2---------0--2--------0-2---------0-2---|  x3
Ab|-0-3------0--3~-------0--0-3------0--3~------0-|
Eb|-------------*-----------------------*---------|
    PM--------|     PM----------------|     PMPMPM

  [2nd Chorus]
Eb|-----------------------------------------------------------|
Bb|------------------8-7--------------------8-7---------------|
Gb|-----------7-9~-------9-7---9----7--7--------9-7----7------|
Db|--7--7--9------------------------7--7------------10---10~--|
Ab|---------------------------------5--5----------------------|
Eb|-----------------------------------------------------------|
    PM                                              PM
Eb|----------10-12~----------------15-15~---------------------|
Bb|-10-10-12---------------7---8------------------------------|
Gb|-----------------------------------------------------------|
Db|-----------------------------------------------------------|
Ab|-----------------------------------------------------------|
Eb|-----------------------------------------------------------|
    PM
Eb|----------------------------------------|
Bb|------------------8-7-------------------|
Gb|-----------7-9~-------9-7---9----7--7---|
Db|--7--7--9------------------------7--7---|
Ab|---------------------------------5--5---|
Eb|----------------------------------------|
    PM
Eb|----------10-12~------------------------|
Bb|-10-10-12---------------7---8---10-10~--|
Gb|----------------------------------------|
Db|----------------------------------------|
Ab|----------------------------------------|
Eb|----------------------------------------|
    PM
Eb|-------------------------------------------------------|
Bb|-------------------------------------------------------|
Gb|-------------------------------------------------------|
Db|-5-4--2-0--4-2--0----2-0-------------------------------|
Ab|------------------3-------3-2----3-2-0---3-2-0---------|
Eb|-------------------------------2-------3-------3-0-2~--|
           PM        PM        PM-------------------|
Eb|------------------------------------------------------|
Bb|----------8----------------8~-----7~------------5---\-|
Gb|-7-7~-----9----------------7~-----6~------------4---\-|
Db|-7-7~-----9----------------5~-----4~------------2---\-|
Ab|-5-5~-------------------------------------------2---\-|
Eb|------------------------------------------------------|
 
[Verse]
Eb|-----------------------------------------------|
Bb|-----------------------------------------------|
Gb|-----------------------------------------------|
Db|-----0-2---------0--2--------0-2---------0-2---|  x3
Ab|-0-3------0--3~-------0--0-3------0--3~------0-|
Eb|-------------*-----------------------*---------|
    PM--------|     PM----------------|     PMPMPM
                                  
Eb|-------------------------------------------------3b1/---\--|
Bb|---------9-------9------9--------------------1-------------|
Gb|---------7-------7------7----------------2~----------------|
Db|-7-------5-------5------5--------------0-------------------|
Ab|-7--------------------------------3~-----------------------|
Eb|-5---------------------------------------------------------|

Eb|-7bh/~---\--------7~------------5~-----------------|
Bb|--------------------------------5~-----------------|
Gb|------------------------5~-------------------------|
Db|------------x\-------------------------------------|
Ab|---------------------------------------------------|
Eb|---------------------------------------------------|

Eb|------------------------------------------19bh/~---\/\/\--/\/\/\--|
Bb|------------------------------------------------------------------|
Gb|------------------------------------------------------------------|
Db|-^7^5^0--/----------------------------------------------------|
Ab|------------------------------------------------------------------|
Eb|------------------------------------------------------------------|

Eb|-22b1/~----22u~--\~-----17~--15~---|
Bb|-----------------------------------|
Gb|-----------------------------------|
Db|-----------------------------------|
Ab|-----------------------------------|
Eb|-----------------------------------|

 Eb|-------------------------------------------------3b1/---\--|
Bb|---------9-------9------9--------------------1-------------|
Gb|---------7-------7------7----------------2~----------------|
Db|-7-------5-------5------5--------------0-------------------|
Ab|-7--------------------------------3~-----------------------|
Eb|-5---------------------------------------------------------|

Eb|-7bh/~---\--------7~------------5~-----------------|
Bb|--------------------------------5~-----------------|
Gb|------------------------5~-------------------------|
Db|------------x\-------------------------------------|
Ab|---------------------------------------------------|
Eb|---------------------------------------------------|

Eb|------------------------------------------19bh/~---\/\/\--/\/\/\--|
Bb|------------------------------------------------------------------|
Gb|------------------------------------------------------------------|
Db|-^7^5^0--/----------------------------------------------------|
Ab|------------------------------------------------------------------|
Eb|------------------------------------------------------------------|

Eb|-22b1/~----22u~--\~-----17~--15~---|
Bb|-----------------------------------|
Gb|-----------------------------------|
Db|-----------------------------------|
Ab|-----------------------------------|
Eb|-----------------------------------|            
Submit corrections


         lessons Hard to play? Try these video lessons and learn fast  lessons
        
↑ Back to top | Tablatures and chords for acoustic guitar and electric guitar, ukulele, drums are parodies/interpretations of the original songs. You may use it for private study, scholarship, research or language learning purposes only