Home » U » Used »

Used - Maybe Memories Tabs

Artists:  A B C D E F G H I J K L M N O P Q R S T U V W X Y Z # 

Maybe Memories Tabs

(ver. 2) Click to play this song!
Used
The Used – Maybe Memories

Tuning:  DADGBe

Palm Mute = xxx

The weird intro thing at the beginning is basically just playing around bending the 8th and 9th fret for a while.

Intro x2
-2220--2220--2220--2220-------------------------------------------
-2220--2220--2220--2220-------------------------------------------
-2220--2220--2220--2220-------------------------------------------
 xxxx  xxxx  xxxx  xxxx

Then (verse) x4
-2220--2220--2220--2220-------------------------------------------
-2220--2220--2220--2220-------------------------------------------
-2220--2220--2220--2220-------------------------------------------

Chorus x2
-5555-777777777--5555-777777777-----------------------------------
-5555-777777777--5555-777777777-0000------------------------------
-3333-555555555--3333-555555555-0000------------------------------
--------------------------------0000------------------------------
					  xxxx

More Chorus x2
-5555-777777777--5555-777777777-----------------------------------
-5555-777777777--5555-777777777-----------------------------------
-3333-555555555--3333-555555555-----------------------------------

Intro Riff x1 
Verse Riff x2
Chorus Riff x1

Bridge (the 8 is tremolo picked or not even played)
------8xxxxxxxx-----8xxxxxxxx-----8xxxxxxxx-----------------------
-2220----------2220----------2220----------2220-------------------
-2220----------2220----------2220----------2220-------------------
-2220----------2220----------2220----------2220-------------------

Bridge 2 
-4444444444444444-55555555-77777777-------------------------------
-4444444444444444-55555555-77777777-------------------------------
-2222222222222222-33333333-55555555-------------------------------

-4444444444444444-777-999-------7---------------------------------
-4444444444444444-777-999-5----7----------------------------------
-2222222222222222-555-777-5---5-----------------------------------
--------------------------5------5--------------------------------
 
LIGHTLY! Play the More Chorus Riff x2 (without distortion or acoustic)
(distorted) More Chorus Riff x2
Intro Riff x2
Play D-2222202
     A-2222202 (hold last chord)
     D-2222202 
Verse Riff x4 
Then Slide from (on Low D) 2nd fret to Open
            
Submit corrections

↑ Back to top | Tablatures and chords for acoustic guitar and electric guitar, ukulele, drums are parodies/interpretations of the original songs. You may use it for private study, scholarship, research or language learning purposes only