Home » U » Used »

Used - Lunacy Fringe Chords

Artists:  A B C D E F G H I J K L M N O P Q R S T U V W X Y Z # 

Lunacy Fringe Chords

(ver. 1) Click to play this song!
Used
 Rating:
4/5 (4 votes)
                The Used - Lunacy Fringe


Tuning: Half Step Down


INTRO

|-1-1---3---1-0-----------0-1---3---1-0-1---------------------------------------|
|---------------3---1-3-------------------3---1-3-------------------------------|
|-------------------------------------------------------------------------------|
|-------------------------------------------------------------------------------|
|-------------------------------------------------------------------------------|
|-------------------------------------------------------------------------------|


---------------------------------------------------------------------------------


VERSE
Am         Dm         Am               Dm                           Am
     Wake up my love Never thought you'd make me break me
Am         Dm         Am               Dm                           Am 
     Now I'm up from below such a brilliant star you are
  
Am                 G                            F
    and will you love keep burning baby burn a hole right through my eyes
Am                 G                            F
    and all these short times feel like no time I thought you oughta now
---------------------------------------------------------------------------------

CHORUS
C        Dm     F
      I'm so far gone now I've been running on empty 
C        Dm     F
      I'm so far gone gone now
                       Am          F   
do you want to take me on   do you wanna take me on!
---------------------------------------------------------------------------------

FILL

|-------------------------------------------------------------------------------|
|-------------------------------------------------------------------------------|
|-------------------------------------------------------------------------------|
|-----------2-0---0-----------------------------2-etc.--------------------------|
|-0-0-----0-----3---0-0-----0-3-2---2-0-0-----0---------------------------------|
|---------------------------------3---------------------------------------------|
---------------------------------------------------------------------------------

VERSE
Am         Dm            Am                Dm                         Am
do      do you do you know do you know how long I've waited
Am      Dm       Am               Dm                           Am 
to look up from below just to find someone like you

Am                 G                            F
        and will love light burn me baby burn a hole right through my
Am                 G                 F
heart I think I might just trust you maybe

      but im not sure Im' not sure I wanna know
---------------------------------------------------------------------------------

CHORUS
C        Dm     F                             
      I'm so far gone now I've been running on empty 
C        Dm     F                           
      I'm so far gone now do u wanna take me on
C        Dm     F                            
      I'm so far gone now I've been running on empty 
C        Dm     F                                
      I'm so far gone

                       Am          F   
do you want to take me on   do you wanna take me on!
---------------------------------------------------------------------------------


Am                             Dm                                 Am           
     I think you could make me girl you could make me and take my life 
Am                        Dm        Am        F
I know you could break me girl take all of me all of me

FILL end on A
            
Submit corrections

↑ Back to top | Tablatures and chords for acoustic guitar and electric guitar, ukulele, drums are parodies/interpretations of the original songs. You may use it for private study, scholarship, research or language learning purposes only