» » »

Used - Handsome Awkward Tabs

Artists:  A B C D E F G H I J K L M N O P Q R S T U V W X Y Z # 

Handsome Awkward Tabs

(ver. 3) Click to play this song!
Used
 Rating:
4/5 (4 votes)

 Handsome Awkward lessons Tabs too difficult? Try these video lessons and learn fast
 
                Band: The Used

Tuning: Drop D

I noticed no tab was up for this song, so I decided to make one my self ;)



Main Riff
e|----------------------------------------------------|
B|----------------------------------------------------|
G|----------------------------------------------------|
D|-------0--0x-0x-0x-0x-0x-------0--0x-0x-0x-0x-0x----|
A|----------0x-0x-0x-0x-0x----------0x-0x-0x-0x-0x----|
D|-0h3h5----0x-0x-0x-0x-0x-0h3h5----0x-0x-0x-0x-0x----|

e|----------------------------------------------------|
B|----------------------------------------------------|
G|----------------------------------------------------|
D|-------0--0x-0x-0x-0x-0x-------3--3x-3x-3x-5x-5x----|
A|----------0x-0x-0x-0x-0x-------3--3x-3x-3x-5x-5x----|
D|-0h3h5----0x-0x-0x-0x-0x-0h3h5-3--3x-3x-3x-5x-5x----|



Outro
e|--------------------------------------------|
B|--------------------------------------------|
G|--------------------------------------------|
D|---------------------------------6-5-3-0x---|
A|------0h3h5-----0h3h5-----0h3h5--6-5-3-0x---|
D|-0h3h5-----0h3h5-----0h3h5-------6-5-3-0x---|


| /  slide up
| \  slide down
| h  hammer-on
| p  pull-off
| ~  vibrato
| +  harmonic
| x  Mute note
===============================================================================
            
Submit corrections


        Handsome Awkward lessons Hard to play? Try these video lessons and learn fast Handsome Awkward lessons
        
↑ Back to top | Tablatures and chords for acoustic guitar and electric guitar, ukulele, drums are parodies/interpretations of the original songs. You may use it for private study, scholarship, research or language learning purposes only