Home » U » Used »

Used - Find A Way Ukulele

Artists:  A B C D E F G H I J K L M N O P Q R S T U V W X Y Z # 

Find A Way Ukulele

(ver. 1) Click to play this song!
Used
 Rating:
4/5 (4 votes)
                Album:Lies for the Liars
              
For your questions or suggestions,just post in friendster comment,PM or mail me.

Gtr.Legends:
~ - let it ring
x - dead string
h - hammer-on

Gtr.Tuning:Drop D(Alternative)

Intro:
Gtr.1(11-13)
e|----------------------|
B|----------------------|
G|-111111111------------| 2x
D|-----------13131313---|
A|----------------------|
D|----------------------|

Gtr.2
e|------11------0----0-----------0-----------0------|
B|---12----12-----12---12-----12---12-----12---12---|
G|-11-----------------------------------------------| 2x
D|-------------------------13----------13-----------|
A|--------------------------------------------------|
D|--------------------------------------------------|

Verse 1:Lay your head...
e|------------7-0~----------7------------7-0~----7--11~---|
B|--------------------------------------------------------|
G|-------8-9---------8~------------8-9--------8-----------|
D|--------------------------------------------------------|
A|--------------------------------------------------------|
D|--------------------------------------------------------|

Chorus:One more time to say...
e|-----0~---|
B|---4------|
G|-4--------| 4x
D|----------|
A|----------|
D|----------|

Repeat Intro:

Verse 2:Move let the...
e|------------111111-14---1111-12-14-14~-----------------11111-14---1111-12-14-14~----7----7---|
B|---------------------------------------------0~----------------------------------------------|
G|-----------------------------------------6-4-------------------------------------8h9--8h9----|
D|---------------------------------------------------------------------------------------------|
A|---------------------------------------------------------------------------------------------|
D|---------------------------------------------------------------------------------------------|

Chorus:
Gtr.1
e|-----7~---|
B|----------|
G|-8-9------| 8x
D|----------|
A|----------|
D|----------|

Gtr.2 Enters(5th round of gtr.1)
e|-0---0---0---0-------------------------|
B|---12--12--12--12-----12----12----12---|
G|---------------------------------------| 4x
D|-------------------13----13----13------|
A|---------------------------------------|
D|---------------------------------------|


Bridge:I love you to...
Gtr.1
e|-------------|
B|-------------|
G|-------------| 4x
D|-6666-2222---|
A|-6666-2222---|
D|-6666-2222---|

Outro Chorus:
Gtr.1
e|-------------|
B|-------------|
G|-8888-9999---| 8x
D|-xxxx-xxxx---|
A|-6666-7777---|
D|-------------|

Gtr.2 Enters
e|-11----14---|
B|----12------|
G|------------| 3x
D|------------|
A|------------|
D|------------|

Repeat Intro

e|-------|
B|-------|
G|-11~---|
D|--9~---|
A|-------|
D|-------|

End...


Find A Way Lyrics:

Verse 1
Lay your head down just for now
Space fills your mind you dream awhile
The sun floods your room as you drown your
Lungs full of breathing
Your true love believe

Chorus:
One more time to say I love you always
and keeping faith letting love find a way

Verse 2
Move let the stars suck you in
Hold tight, the night's air and breathe again
Let go and be burnt by the moon
Your hands full of feeling your true love, Believe

Repeat Chorus(2x)

Bridge:
I love you to death
Could you love me to death

Repeat Chorus
            
Submit corrections

↑ Back to top | Tablatures and chords for acoustic guitar and electric guitar, ukulele, drums are parodies/interpretations of the original songs. You may use it for private study, scholarship, research or language learning purposes only