Home » U » Used »

Used - Find A Way Bass

Artists:  A B C D E F G H I J K L M N O P Q R S T U V W X Y Z # 

Find A Way Bass

(ver. 1) Click to play this song!
Used
 Rating:
4/5 (4 votes)
                Find a Way - The Used

Verse (0:24)
G|---------------|x3|--------------------|
D|---------------|x3|--------------------|
A|--2--44--------|x3|--2--44---------9\--|
D|---------6--55-|x3|---------2----------|

Chorus
G|----------------------------------------|
D|------1-------------------------1-------|
A|-2---------0----4----6-----2---------0--|
D|----------------------4-----------------|

Verse 2
G|------------------------------|
D|------------------------------|
A|-2--44----------2--44---------|
D|--------6--55----------6--55--|

G|----------------------------|x3|------------------------------|
D|----------------------------|x3|------------------------------|
A|-2-2-4-6-6\4----------------|x3|-66666666-66666646-7~------9\-|
D|---------------6-6-9-6-65-4-|x3|------------------------------|

Chorus
G|-------------------------|x4
D|------1------------------|x4
A|-2---------0----4----6---|x4
D|----------------------4--|x4

Bridge
G|---------------------------------|x3|---------------------------------|
D|---------------------------------|x3|---------------------------------|
A|---------------------------------|x3|-----------------7-7-7-7-7-7-7-7-|
D|-6-6-6-6-6-6-6-6-2-2-2-2-2-2-2-2-|x3|-6-6-6-6-6-6-6-6-----------------|


Final Chorus
G|---------------------------|x4|---------------------------------|
D|------1--------------------|x4|---------------------------------|
A|-2---------0----4----6-----|x4|-------6----------4----------7~--|
D|----------------------4----|x4|-4-----------4---------4---------|
            
Submit corrections

↑ Back to top | Tablatures and chords for acoustic guitar and electric guitar, ukulele, drums are parodies/interpretations of the original songs. You may use it for private study, scholarship, research or language learning purposes only