» » »

Used - A Box Full Sharp Objects Tabs

Artists:  A B C D E F G H I J K L M N O P Q R S T U V W X Y Z # 

A Box Full Sharp Objects Tabs

(ver. 1) Click to play this song!
Used
 Rating:
3.5/5 (8 votes)


 A Box Full Sharp Objects lessons Tabs too difficult? Try these video lessons and learn fast
 
                A Box Full Of Sharp Objects by The Used
Drop D Tuning


I saw the other versions of this tab and none of them are 100% correct.
This is 99.5% correct. The only part I’m not sure of is the fill after the verse.

Intro
e|-------------------------------------------|
B|-------------------------------------------|
G|-------------------------------9-9-9-9-9-9-|
D|-444-7777-444-7777-44444-77777-x-x-x-x-x-x-|
A|-444-7777-444-7777-44444-77777-7-7-7-7-7-7-|
D|-444-7777-444-7777-44444-77777-------------|


(slightly palm muted) (this is the correct way!)
e|------------------------------------------
B|------------------------------------------
G|-------88-----------88-------88----------- 
D|----66----66xx---66-------66----66xx--444-
A|-44-----------44-------77-------------444-
D|--------------------------------------444-

Verse x2 (slightly palm muted)
e|----------------------------------------------- 
B|-----------------------------------------------  
G|-------88------------88-------88------------88-  
D|----66----66xx----66-------66----66xx----66----
A|-44------------44-------77------------77-------  
D|-----------------------------------------------

After second time end with this
e|---------------
B|---------------
G|-8-8-8-8-8-8-8-
D|-6-6-6-6-6-6-6-
A|-7-7-7-7-7-7-7-
E|---------------


Fill
|----------------------------------------
|----------------------------------------
|-----8-------------8-----8------------8-
|---6---6---6---6-6-----6---6---6---66---
|-4-------4---4-------7-------7---7------
|----------------------------------------


Chorus x4
|--------------------------------------------------
|--------------------------------------------------
|-4-4-4--9-9-9-9-9-9-9-9---------1111111111111111--
|-4-4-4--x-x-x-x-x-x-x-x--7-7-7---x-x-x-x-x-x-x-x--
|-4-4-4--7-7-7-7-7-7-7-7--7-7-7---9-9-9-9-9-9-9-9--
|-------------------------7-7-7--------------------



Fill
|----------------------------------------
|----------------------------------------
|-----8-------------8-----8------------8-
|---6---6---6---6-6-----6---6---6---66---
|-4-------4---4-------7-------7---7------
|----------------------------------------



Chorus 
|------------------------
|------------------------
|--------9-9-9-9-9-9-9-9-
|-7-7-7--x-x-x-x-x-x-x-x-
|-7-7-7--6-6-6-6-6-6-6-6-
|-7-7-7------------------

|--------------------------------------------------
|--------------------------------------------------
|-4-4-4--9-9-9-9-9-9-9-9---------1111111111111111--
|-4-4-4--x-x-x-x-x-x-x-x--7-7-7---x-x-x-x-x-x-x-x--
|-4-4-4--7-7-7-7-7-7-7-7--7-7-7---9-9-9-9-9-9-9-9--
|-------------------------7-7-7--------------------

|--------------------------------------------------
|--------------------------------------------------
|-4-4-4--9-9-9-9-9-9-9-9---------1111111111111111--
|-4-4-4--x-x-x-x-x-x-x-x--7-7-7---x-x-x-x-x-x-x-x--
|-4-4-4--7-7-7-7-7-7-7-7--7-7-7---6-6-6-6-6-6-6-6--
|-------------------------7-7-7--------------------

|--------------------------------------------------
|--------------------------------------------------
|-4-4-4--9-9-9-9-9-9-9-9---------1111111111111111--
|-4-4-4--x-x-x-x-x-x-x-x--7-7-7---x-x-x-x-x-x-x-x--
|-4-4-4--7-7-7-7-7-7-7-7--7-7-7---9-9-9-9-9-9-9-9--
|-------------------------7-7-7--------------------


Bridge (repeat this a bunch of times using alternate strokes)
e|-------------------
B|-------------------
G|-13-13-13-13-13-13-
D|--x--x--x--x--x--x-
A|-11-11-11-11-11-11-
D|-------------------

Then..
e|-------------------------------|
B|-------------------------------|
G|-------------------------------|
D|-444-7777-444-7777-44444-77777-|
A|-444-7777-444-7777-44444-77777-|
D|-444-7777-444-7777-44444-77777-|

(slightly palm muted) x2
e|----------------------------------------------- 
B|-----------------------------------------------  
G|-------88------------88-------88------------88-  
D|----66----66xx----66-------66----66xx----66----
A|-44------------44-------77------------77-------  
D|---------------------------------------

After second time end with this
e|---------------
B|-pm>>>>>>>>>>>-
G|-8-8-8-8-8-8-8-
D|-6-6-6-6-6-6-6-
A|-7-7-7-7-7-7-7-
E|---------------

Then..
e|----------------------------------------------- 
B|-----------------------------------------------  
G|-------88------------88-------88------------88-  
D|----66----66----66---------66----66----66----
A|-44----------44---------77-----------77-------  
D|---------------------------------------

Chorus
|--------------------------------------------------
|--------------------------------------------------
|-4-4-4--9-9-9-9-9-9-9-9---------1111111111111111--
|-4-4-4--x-x-x-x-x-x-x-x--7-7-7---x-x-x-x-x-x-x-x--
|-4-4-4--7-7-7-7-7-7-7-7--7-7-7---6-6-6-6-6-6-6-6--
|-------------------------7-7-7--------------------

|--------------------------------------------------
|--------------------------------------------------
|-4-4-4--9-9-9-9-9-9-9-9---------1111111111111111--
|-4-4-4--x-x-x-x-x-x-x-x--7-7-7---x-x-x-x-x-x-x-x--
|-4-4-4--7-7-7-7-7-7-7-7--7-7-7---9-9-9-9-9-9-9-9--
|-------------------------7-7-7--------------------

|--------------------------------------------------
|--------------------------------------------------
|-4-4-4--9-9-9-9-9-9-9-9---------1111111111111111--
|-4-4-4--x-x-x-x-x-x-x-x--7-7-7---x-x-x-x-x-x-x-x--
|-4-4-4--7-7-7-7-7-7-7-7--7-7-7---6-6-6-6-6-6-6-6--
|-------------------------7-7-7--------------------

|--------------------------------------------------
|--------------------------------------------------
|-4-4-4--9-9-9-9-9-9-9-9---------1111111111111111--
|-4-4-4--x-x-x-x-x-x-x-x--7-7-7---x-x-x-x-x-x-x-x--
|-4-4-4--7-7-7-7-7-7-7-7--7-7-7---9-9-9-9-9-9-9-9--
|-------------------------7-7-7--------------------

Repeat the above chorus another time


End With..
e|----------|
B|----------|
G|----------|
D|-444-7777-|
A|-444-7777-|
D|-444-7777-|
            
Submit corrections



        A Box Full Sharp Objects lessons Hard to play? Try these video lessons and learn fast A Box Full Sharp Objects lessons
        
↑ Back to top | Tablatures and chords for acoustic guitar and electric guitar, ukulele, drums are parodies/interpretations of the original songs. You may use it for private study, scholarship, research or language learning purposes only