Home » U » Uriah Heep »

Uriah Heep - Lady In Black Bass

Artists:  A B C D E F G H I J K L M N O P Q R S T U V W X Y Z # 

Lady In Black Bass

(ver. 2) Click to play this song!
Uriah Heep
 Intro         1st Verse
  Q=88
 4/4
  Gtr I
  Wx2           Wx12          H    S S S S S E.
|------------||-------------|-------------------|
|------------||-------------|----------0-1-2----|
|------------||-------------|------0-4----------|
|------------||-------------|----------------3--|


                                   2nd & 4th Verses
  Q  Q  Q  S E.   Q  Q  Q  S E.     Q  Q  Q  S E.
|---------------|---------------||----------------|
|---------------|---------------||o---------------|
|---------------|---------------||o---------------|
|-5--5--5--5-3--|-5--5--5--5-3--||--5--5--5--5-3--|


  Q  Q  Q  E E   Q  Q  Q  E E   Q  Q  Q  S E.   Q  Q  Q  S E.
|--------------|--------------|---------------|---------------|
|--------------|--------------|---------------|---------------|
|--------------|--------------|---------------|---------------|
|-5--5--5--0-5-|-3--3--3--3-3-|-5--5--5--5-3--|-5--5--5--5-3--|


  Q  Q  Q  E E   Q  Q  Q  E E   Q  Q  Q  S E.   Q  Q  Q  E E
|--------------|--------------|---------------|--------------|
|--------------|--------------|---------------|--------------|
|--------------|----------2-5-|---------------|--------------|
|-5--5--5--0-5-|-3--3--3------|-5--5--5--5-3--|-5--5--5--0-5-|


                                               3rd & 5th Verses
  Q  E E Q  Q    Q  Q  Q  Q    Q  Q  Q  S E.    Q  Q  Q  S E.
|--------------|-------------|---------------||---------------|
|--------------|-------------|---------------||---------------|
|----2-5-------|-------------|---------------||---------------|
|-3------5--5--|-5--5--3--3--|-5--5--5--5-3--||-5--5--5--5-3--|


  Q  Q  Q  E E   Q  Q  Q  E E   Q  Q  Q  S E.   Q  Q  Q  S E.
|--------------|--------------|---------------|---------------|
|--------------|--------------|---------------|---------------|
|--------------|----------2-5-|---------------|---------------|
|-5--5--5--5-0-|-3--3--3------|-5--5--5--5-3--|-5--5--5--5-3--|


                                               1.
  Q  Q  Q  E E   Q  Q  Q  E E   Q  Q  Q  S E.   Q  Q  Q  E E
|--------------|--------------|---------------|--------------|
|--------------|--------------|---------------|--------------|
|--------------|----------2-5-|---------------|--------------|
|-5--5--5--0-5-|-3--3--3------|-5--5--5--5-3--|-5--5--5--0-5-|


                                                      2.
  Q  Q  Q  Q    Q  E E Q  E E   Q  Q  S S S S S E.     Q  Q  Q  S E.
|-------------|---------------|---------------------||---------------|
|-------------|---------------|-----------0-1-2----o||---------------|
|-------------|-----------2-5-|-------0-4----------o||---------------|
|-3--3--5--5--|-5--5-0-3------|-5--5------------3---||-5--5--5--5-3--|


                                                 Outro
  Q  Q  Q  E E   Q  Q  Q  E E   Q  Q  Q  S E.     Q  Q  Q  E E
|--------------|--------------|---------------||---------------|
|--------------|--------------|---------------||o--------------|
|--------------|----------2-5-|---------------||o--------------|
|-5--5--5--0-5-|-3--3--3------|-5--5--5--5-3--||--5--5--5--0-5-|


  Q  E E Q  Q    Q  Q  Q  E E   Q  Q  S S S S S E.
|--------------|--------------|--------------------|
|--------------|--------------|-----------0-1-2----|
|----2-5-------|----------2-5-|-------0-4----------|
|-3------5--5--|-5--5--3------|-5--5------------3--|


  Q  Q  Q  E E   Q  E E Q  Q    Q  Q  Q  Q    Q  Q  S S S S S E.  4x
|--------------|--------------|-------------|---------------------||
|--------------|--------------|-------------|-----------0-1-2----o||
|--------------|----2-5-------|-------------|-------0-4----------o||
|-5--5--5--0-5-|-3------5--5--|-5--5--3--3--|-5--5------------3---||            
Submit corrections

↑ Back to top | Tablatures and chords for acoustic guitar and electric guitar, ukulele, drums are parodies/interpretations of the original songs. You may use it for private study, scholarship, research or language learning purposes only