» » »

Urge - Played Out Bass

Artists:  A B C D E F G H I J K L M N O P Q R S T U V W X Y Z # 

Played Out Bass

(ver. 1) Click to play this song!
Urge
 Rating:
4/5 (4 votes)


 Played Out lessons Tabs too difficult? Try these video lessons and learn fast
 
                Artist	The Urge
Song	Played Out
Album	Master of Styles

standard tuning (5-string)
pm=palm mute


Intro			  3x  End with
1|-----------------------------------------|------------------------------------|
2|.44444----------------------------------.|-44444------------------------------|
3|.-------4-55555-4--444-----222-----42---.|--------4-55555-4--444-----222------|
4|-------5---------5-----555-----333----42-|-------5---------5-----555-----33-3-|
5|-----------------------------------------|------------------------------------|

Pre-Verse
1|----------------------------|
2|.--------------------------.|
3|.-----5-----------4--------.|
4|-2-22-----------------3-333-|
5|--------3-333-2-2---2-------|

Verse                         3x  Ending 	
1|------------------------------|-------------------------------------|
2|.----------------------------.|-------------------------------------|
3|.-------5-555--4-4---2-2-----.|--------5-555--444-----222-----42----|
4|-2-222------------5-5---3-333-|-2-222-------------555-----333----42-|
5|------------------------------|-------------------------------------|

Chorus			4x
1|------------------------------------------|
2|.-44444----------------------------------.|
3|.--------4-55555-4--444-----222-----42---.|
4|--------5---------5-----555-----333----42-|
5|------------------------------------------|

Pre-Verse 2x
Verse 4x
Chorus 4x

Bridge
1|--------------------------------------------------------------------------
2|--------------------------------------------------------------------------
3|---------------5------------------------------5---------------------------
4|-0-000-000-00-------------------0-000-000-00-----------------0-000-000-00-
5|-----------------3-333-333-333------------------3-333-0-000---------------
Cont.
1|-----------------------------------------------------|
2|-----------------------------------------------------|
3|-5------------------------------5--------------------|
4|------------------0-000-000-00--------------33333333-|
5|---3-333-333-333------------------3-333-33--pmpmpmpm-|

Pre-Verse 2x
Verse 4x

End with Chorus 8x

Please rate this tab, Thanks.
            
Submit corrections



        Played Out lessons Hard to play? Try these video lessons and learn fast Played Out lessons
        
↑ Back to top | Tablatures and chords for acoustic guitar and electric guitar, ukulele, drums are parodies/interpretations of the original songs. You may use it for private study, scholarship, research or language learning purposes only