» » »

Unwritten Law - How You Feel Tabs

Artists:  A B C D E F G H I J K L M N O P Q R S T U V W X Y Z # 

How You Feel Tabs

(ver. 2) Click to play this song!
Unwritten Law
 Rating:
4/5 (4 votes)

 How You Feel lessons Tabs too difficult? Try these video lessons and learn fast
 
                I'm 99.9999% sure this is the exact way that they play it, except i combined
the two guitar parts to be played on only one guitar, unwritten law is the greatest
band ever!!! ...this is an awsome song listen to get the rythm down


*=palm mute
^=upstroke
p=pound
~=let ring


    C           Am          Em         Bdim/G  

           ^           ^           ^        ^ ^
[-------0-00--------0-00--------0-00-------1111---]
[-------1-11--------1-11--------0-00-------0000---]
[-------0-00--------2-22--------0-00-------0000---] (x3 or 4 if you want to include an intro)
[---2-2---------2-2---------2-2--------0-0--------]
[---3-3---------0-0---------2-2--------2-2--------]
[---0-0---------0-0---------0-0--------3-3--------]
    * *         * *         * *        * *
      I want, I know, I see just how you feel...



    Am        G       A    G        C           Am          Em         Bdim/G

          ^     ^  ^^    ^ ^       ^       ^           ^           ^        ^ ^
[---0000-00---3-3-31111-1113-33---33----0-00--------0-00--------0-00-------1111---]
[---1111-11---2-2-23333-3332-22---22----1-11--------1-11--------0-00-------0000---]
[---2222-22---0-0-03333-3330-00---00----0-00--------2-22--------0-00-------0000---]
[---2222-22---0-0-02222-2220-00---002-2---------2-2---------2-2--------0-0--------]
[---0000-00---3-3-31111-1113-33---333-3---------0-0---------2-2--------2-2--------]
[---0000-00---3-3-31111-1113-33---330-0---------0-0---------0-0--------3-3--------]
    ***                             * *         * *         * *        * *
 ...so hard to let you go    oohoh, well i've been around this block...



    C           Am          Em         Bdim/G  

           ^           ^           ^       
[-------0-00--------0-00--------0-00---------1-------]
[-------1-11--------1-11--------0-00-----------0-----]
[-------0-00--------2-22--------0-00-------------0---]
[---2-2---------2-2---------2-2------------0---------]
[---3-3---------0-0---------2-2----------2-----------]
[---0-0---------0-0---------0-0--------3-------------]
    * *         * *         * *



    C           Am          Em         Bdim/G  

           ^           ^           ^        ^ ^
[-------0-00--------0-00--------0-00-------1111---]
[-------1-11--------1-11--------0-00-------0000---]
[-------0-00--------2-22--------0-00-------0000---]
[---2-2---------2-2---------2-2--------0-0--------]
[---3-3---------0-0---------2-2--------2-2--------]
[---0-0---------0-0---------0-0--------3-3--------]



(first pre-chorus thingy)

    Am        G    A       G

          ^     ^  ^^    ^ ^    ^ ^
[---0000-00---3-3-31111-1113-3-3333---]
[---1111-11---2-2-23333-3332-2-2222---]
[---2222-22---0-0-03333-3330-0-0000---]
[---2222-22---0-0-02222-2220-0-0000---]
[---0000-00---3-3-31111-1113-3-3333---]
[---0000-00---3-3-31111-1113-3-3333---]
    ***

then this (chorus)

    C

       ^   ^ ^   ^ ^
[---0-000-00000-0000--------------]
[---1-111-11111-1111--------------]
[---0-000-00000-0000--------------] for the last part just bar each fret
[---2-222-22222-2222---77578753---] and strum the top few strings
[---3-333-33333-3333---77578753---]
[---0-000-00000-0000---77578753---]
     I've got one...    so won't you stop and...


then back to this thingy (the pre/post-chorus i suppose)

   Am    G    A       G

        ^     ^  ^^    ^ ^    ^ ^
[---00-00---3-3-31111-1113-3-3333---]
[---11-11---2-2-23333-3332-2-2222---]
[---22-22---0-0-03333-3330-0-0000---]
[---22-22---0-0-02222-2220-0-0000---]
[---00-00---3-3-31111-1113-3-3333---]
[---00-00---3-3-31111-1113-3-3333---] then back into the verse right away


    C           Am          Em         Bdim/G  

           ^           ^           ^        ^ ^
[-------0-00--------0-00--------0-00-------1111---]
[-------1-11--------1-11--------0-00-------0000---]
[-------0-00--------2-22--------0-00-------0000---] (just once)
[---2-2---------2-2---------2-2--------0-0--------]
[---3-3---------0-0---------2-2--------2-2--------]
[---0-0---------0-0---------0-0--------3-3--------]
    * * 
    I want i know i see just how you've been...

then the next part of the verse goes like this...


    C           Am          Em         Bdim/G  

           ^           ^           ^       
[-------0-00--------0-00--------0-00---------1-------]
[-------1-11--------1-11--------0-00-----------0-----]
[-------0-00--------2-22--------0-00-------------0---] (x1)
[---2-2---------2-2---------2-2------------0---------]
[---3-3---------0-0---------2-2----------2-----------]
[---0-0---------0-0---------0-0--------3-------------]


annnnd again

    C           Am          Em         Bdim/G  

           ^           ^           ^        ^ ^
[-------0-00--------0-00--------0-00-------1111---]
[-------1-11--------1-11--------0-00-------0000---]
[-------0-00--------2-22--------0-00-------0000---] (just once)
[---2-2---------2-2---------2-2--------0-0--------]
[---3-3---------0-0---------2-2--------2-2--------]
[---0-0---------0-0---------0-0--------3-3--------]
                                             Cuz its...

    Am        G    A       G

          ^     ^  ^^    ^ ^    ^ ^
[---0000-00---3-3-31111-1113-3-3333---]
[---1111-11---2-2-23333-3332-2-2222---]
[---2222-22---0-0-03333-3330-0-0000---]
[---2222-22---0-0-02222-2220-0-0000---]
[---0000-00---3-3-31111-1113-3-3333---]
[---0000-00---3-3-31111-1113-3-3333---]
    ***
    So hard to let you go...


    C                                    Am      G    A       G

       ^   ^ ^   ^ ^                         ^     ^  ^^    ^ ^    ^ ^
[---0-000-00000-0000--------------]  [---00-00---3-3-31111-1113-3-3333---]
[---1-111-11111-1111--------------]  [---11-11---2-2-23333-3332-2-2222---]
[---0-000-00000-0000--------------]  [---22-22---0-0-03333-3330-0-0000---]
[---2-222-22222-2222---77578753---]  [---22-22---0-0-02222-2220-0-0000---]
[---3-333-33333-3333---77578753---]  [---00-00---3-3-31111-1113-3-3333---]
[---0-000-00000-0000---77578753---]  [---00-00---3-3-31111-1113-3-3333---]



    C                                    Am      G    A       G

       ^   ^ ^   ^ ^                         ^     ^  ^^    ^ ^    ^ ^
[---0-000-00000-0000--------------]  [---00-00---3-3-31111-1113-3-3333---]
[---1-111-11111-1111--------------]  [---11-11---2-2-23333-3332-2-2222---]
[---0-000-00000-0000--------------]  [---22-22---0-0-03333-3330-0-0000---]
[---2-222-22222-2222---77578753---]  [---22-22---0-0-02222-2220-0-0000---]
[---3-333-33333-3333---77578753---]  [---00-00---3-3-31111-1113-3-3333---]
[---0-000-00000-0000---77578753---]  [---00-00---3-3-31111-1113-3-3333---]

      And if you see me slippin...        i'd stop the world from spinnin'...



    Am                 G                  A                  G

       ^   ^ ^   ^ ^      ^   ^ ^   ^ ^      ^   ^ ^   ^ ^      ^   ^ ^   ^ ^     
[---0-000-00000-0000---3-333-33333-3333---1-111-11111-1111---3-333-33333-3333---]
[---1-111-11111-1111---3-333-33333-3333---3-333-33333-3333---3-333-33333-3333---]
[---2-222-22222-2222---0-000-00000-0000---3-333-33333-3333---0-000-00000-0000---]
[---2-222-22222-2222---0-000-00000-0000---2-222-22222-2222---0-000-00000-0000---]
[---0-000-00000-0000---2-222-22222-2222---1-111-11111-1111---2-222-22222-2222---]
[---0-000-00000-0000---3-333-33333-3333---1-111-11111-1111---3-333-33333-3333---]



    Am                 G                  A                  G

       ^   ^ ^   ^ ^      ^   ^ ^   ^ ^      ^   ^ ^   ^ ^      ^ ^ ^
[---0-000-00000-0000---3-333-33333-3333---1-111-11111-1111---3-333333---]
[---1-111-11111-1111---3-333-33333-3333---3-333-33333-3333---3-333333---]
[---2-222-22222-2222---0-000-00000-0000---3-333-33333-3333---0-000000---]
[---2-222-22222-2222---0-000-00000-0000---2-222-22222-2222---0-000000---]
[---0-000-00000-0000---2-222-22222-2222---1-111-11111-1111---2-222222---]
[---0-000-00000-0000---3-333-33333-3333---1-111-11111-1111---3-333333---]
          But I'm frustrated....                                seems like i've...



    Am  Em  C        Am       Bdim/G

                  ^         ^
[--------------0-00------0-00---------1~-------------]
[--------------1-11------1-11------------------------]
[---2----------0-00------2-22------------------------]
[---2---2---2-2-------2-2-----------0------------0---]
[-------2---3-3-------0-0---------2------------2-----]
[-----------0-0-------0-0-------3--------3p-3p-------]
            * *       * *
    been there before...


    C           Am          Em         Bdim/G  

           ^           ^           ^        ^ ^
[-------0-00--------0-00--------0-00-------1111---]
[-------1-11--------1-11--------0-00-------0000---]
[-------0-00--------2-22--------0-00-------0000---]
[---2-2---------2-2---------2-2--------0-0--------]
[---3-3---------0-0---------2-2--------2-2--------]
[---0-0---------0-0---------0-0--------3-3--------]
    * *         * *         * *        * *
      so as the story goes ya'll know it well...


    C           Am          Em         Bdim/G  

           ^           ^           ^       
[-------0-00--------0-00--------0-00---------1-------]
[-------1-11--------1-11--------0-00-----------0-----]
[-------0-00--------2-22--------0-00-------------0---]
[---2-2---------2-2---------2-2------------0---------]
[---3-3---------0-0---------2-2----------2-----------]
[---0-0---------0-0---------0-0--------3-------------]
    * *         * *         * *
      and motherf*ckers well...


    C           Am          Em         Bdim/G  

           ^           ^           ^        ^ ^
[-------0-00--------0-00--------0-00-------1111---]
[-------1-11--------1-11--------0-00-------0000---]
[-------0-00--------2-22--------0-00-------0000---]
[---2-2---------2-2---------2-2--------0-0--------]
[---3-3---------0-0---------2-2--------2-2--------]
[---0-0---------0-0---------0-0--------3-3--------]
    * *         * *         * *        * *
      but if you want me gotsto let me know...cuz its


    Am        G        C

          ^     ^  
[---0000-00---3-3-3---------0~---]
[---1111-11---2-2-2--------1~----]
[---2222-22---0-0-0-------0~-----] 
[---2222-22---0-0-0------2~------] (or just strum a c chord to finish and let ring)
[---0000-00---3-3-3-----3~-------]
[---0000-00---3-3-3----0~--------]
    ***
 ...so hard to let you go





And thats the whooolle fabulous thing from start to finish..ENJOY!
            
Submit corrections


        How You Feel lessons Hard to play? Try these video lessons and learn fast How You Feel lessons
        
↑ Back to top | Tablatures and chords for acoustic guitar and electric guitar, ukulele, drums are parodies/interpretations of the original songs. You may use it for private study, scholarship, research or language learning purposes only