» » »

Unspoken - Reason Chords

Artists:  A B C D E F G H I J K L M N O P Q R S T U V W X Y Z # 

Reason Chords

(ver. 1) Click to play this song!
Unspoken
 Rating:
4.3/5 (25 votes)

 Reason lessons Tabs too difficult? Try these video lessons and learn fast
 
                [Intro]

    G#m   E         E           E       E   G#m
e |-----------X--X--------X--X-------X---------|
B |-----------X--X--------X--X-------X---------|
G |-------1---X--X--1-----X--X--1----X--1------|
D |--1----2---X--X--2-----X--X--2----X--2---1--|
A |--2----2---X--X--2-----X--X--2----X--2---2--|
D#|--0----1---X--X--1-----X--X--1----X--1---0--|

    G#m   E         E           E       E 
e |-----------X--X--------X--X-------X-------|
B |-----------X--X--------X--X-------X-------|
G |-------1---X--X--1-----X--X--1----X--1----|
D |--1----2---X--X--2-----X--X--2----X--2----|
A |--2----2---X--X--2-----X--X--2----X--2----|
D#|--0----1---X--X--1-----X--X--1----X--1----|

    F#  F#   G#m      G#m       G#m        G#m
e |-------------X--X--------X--X--------X-------|
B |-------------X--X--------X--X--------X-------| 
G |--3--3----4--X--X--4-----X--X--4-----X--4----|
D |--4--4----6--X--X--6-----X--X--6-----X--6----|  
A |--4--4----6--X--X--6-----X--X--6-----X--6----|
D#|--3--3----5--X--X--5-----X--X--5-----X--5----|

    F#  F#   G#m      G#m       G#m        G#m
e |-------------X--X--------X--X--------X----------|
B |-------------X--X--------X--X--------X----------| 
G |--3--3----4--X--X--4-----X--X--4-----X--4-------|
D |--4--4----6--X--X--6-----X--X--6-----X--6-----1-|  
A |--4--4----6--X--X--6-----X--X--6-----X--6-----2-|
D#|--3--3----5--X--X--5-----X--X--5-----X--5-----0-|


This runs through-out the whole song!

[Verse 1]

G#m    E                     G#m   E
   This   year's felt like           four seasons of winter
F#       G#m         F#     G#m
   And you'd give any-thing       to feel the sun

[Pre-chorus 1]
  G#m      E    
Always reaching always climbing
  G#m    E
Always second guessing the timing
        F#         G#m
But God has a plan     a purpose in this
    F#            G#m
You are His child     so don't you forget

[Chorus]
            G#m  E
He put that hun -ger in your heart
            G#m  E
He put that fi -re in your soul
         F#        G#m
His love is the reason
        F#     G#m
To keep on believing

     G#m      E
When you feel like giving up
     G#m      E
When you feel like giving in
         F#       G#m
His love is the reason
        F#     G#m
To keep on believing


[Verse 2] P.M
   E                 G#m  E
If we could pull back      the curtain of Heaven
F#m  G#m             F#    E 
    We  would see His hand   on everything

[Pre-chorus 2]
     G#m  E                 G#m    E
Every ho -ur every minute every second He's always been in it
      F#      G#m
Don't let a shadow of a doubt take hold
F#      G#m
Hold on to what you already know

[Chorus]
            G#m  E
He put that hun -ger in your heart
       G#m      E
He put that fi -re in your soul
         F#        G#m
His love is the reason
        F#     G#m
To keep on believing

     G#m      E
When you feel like giving up
     G#m      E
When you feel like giving in
         F#       G#m
His love is the reason
        F#     G#m
To keep on believing

[Hook]
G#m  E                G#m
    It's the reason I___
     E                F#    G#m
    It's the reason I_____
         F#        G#m
His love is the reason

[Bridge]
E   
  He's the peace in the madness
F#
  That you can't explain
G#m
  He's the hope in the heartbreak
   Ebm           
e|------|
B|------|
G|--3---|
D|--1---|
A|--1---|
E|--0---|
The rest in the suffering
E                                F#
  He's closer than the air you breathe

From the start to the end to the in between
G#m  P.M------------------------------
Don't you dare doubt even for a minute
----------------------
What He started in you
------------------------|
Yeah, He's gonna finish

[Chorus]
            G#m  E
He put that hun -ger in your heart
       G#m      E
He put that fi -re in your soul
         F#        G#m
His love is the reason
        F#     G#m
To keep on believing

     G#m      E
When you feel like giving up
     G#m      E
When you feel like giving in
         F#       G#m
His love is the reason
        F#     G#m
To keep on believing

[Hook]
G#m  E                G#m
    It's the reason I___
     E                F#    G#m
    It's the reason I_____
         F#        G#m
His love is the reason
G#m  E                G#m
    It's the reason I___
     E                F#    G#m
    It's the reason I_____
         F#        G#m
His love is the reason
            
Submit corrections


        Reason lessons Hard to play? Try these video lessons and learn fast Reason lessons
        
↑ Back to top | Tablatures and chords for acoustic guitar and electric guitar, ukulele, drums are parodies/interpretations of the original songs. You may use it for private study, scholarship, research or language learning purposes only