» » »

Unsigned - You Tabs

Artists:  A B C D E F G H I J K L M N O P Q R S T U V W X Y Z # 

You Tabs

(ver. 2) Click to play this song!
Unsigned
 Rating:
4/5 (4 votes)
                Intro/verse


----3---3----3----3------------------------------------------------------
---0---0-----------------------------------------------------------------
--2---2----0----0-------------------------------------------------------
-0---3----2----3---------------------------------------------------------
---------3----2----------------------------------------------------------

pre chorus

-----------------------------
---3----3------3---3---------
---0----0------0---0---------
--2---2----------------------
-0---3-------2----3----------
------------3----2-----------

chorus

-----------------------------
-----------------------------
-0---0-----------------------
-2---2---0---0---------------
-0---3---2---3---------------
---------3---2---------------
            
Submit corrections

↑ Back to top | Tablatures and chords for acoustic guitar and electric guitar, ukulele, drums are parodies/interpretations of the original songs. You may use it for private study, scholarship, research or language learning purposes only