» » »

Unsigned - Floor 13 - Overdosed Relationship Tabs

Artists:  A B C D E F G H I J K L M N O P Q R S T U V W X Y Z # 

Floor 13 - Overdosed Relationship Tabs

(ver. 2) Click to play this song!
Unsigned
 Rating:
4/5 (4 votes)
                Artist – Floor 13
Title – Overdosed Relationship
Album - ?
Tuning – Drop-D

Intro:
Guitar 1 Clean
|------------------|        |-------------|
|------------------|        |-------------|
|------------------| Repeat |-------------| Play
|--6---60--22-2h40-|   3x   |--6---60-2~~~|  Once
|-4-4-4---0--------|        |-4-4-4---0~~~|        
|4---4---0---------|        |4---4----0~~~|     

Then Guitar 2 comes in and strums the 2 chords
|6|     |2|
|4| and |0| while Guitar 1 plays Intro again.
|4|     |0|

Chorus:
Guitar 1 & 2 Distorted
|----------------------------------------------------------------|
|----------------------------------------------------------------|
|----------------------------------------------------------------| Repeat
|4-446-6666-66-4-444-46-666-6/7-0-002-2222-22-0-000-02-222-2h4-0-|   2x
|4-444-4444-44-4-444-44-444-4-0-0-000-0000-00-0-000-00-000-0-0-0-|
|4-444-4444-44-4-444-44-444-4-0-0-000-0000-00-0-000-00-000-0-0-0-|

Verse 1:
Guitar 1 & 2 Distorted
|--------------------------------------|
|--------------------------------------|
|--------------------------------------|
|4--------------446-0--------------002-|
|4--*let ring*--444-0--*let ring*--000-|
|4--------------444-0--------------000-|
                ..                 ..

Chorus

Verse 2:
Guitar 1 & 2 Distorted
|-------------------------------------------------|
|-------------------------------------------------|
|-------------------------------------------------|  Repeat
|1-11-1-11-111-11-1-11-102-22-2-22-222-22-2-22-20-|    ?x
|1-11-1-11-111-11-1-11-102-22-2-22-222-22-2-22-20-|
|1-11-1-11-111-11-1-11-102-22-2-22-222-22-2-22-20-|
   ..   ..     ..   ..     ..   ..     ..   ..

Bridge:
Guitar 1 Clean
|-------|
|-------|
|-------| Repeat
|0-04~~~|   4x
|0-04~~~|
|0-04~~~|

When drums start, Guitar 2 comes in
Guitar 2 Clean
|--------|
|--------|
|--------|
|--0-4~~~|  
|-0--4~~~|
|0---4~~~|

After Guitar 2 plays that twice, Guitar 1 plays this
Guitar 1 Clean
|------------------|
|------------------|
|------------------|
|--0-4~-6---6---6--|
|-0--4~--4---4---4-|
|0---4~---4---4----|

Guitar 1 & 2 play their respective parts 4 times, then...

Final Chorus is same as regular chorus but only use these chords
|4|     |0|
|4| and |0| with no variations in the chords.
|4|     |0|

Then the super cool ending

Outro
Guitar 1 & 2 Distorted
|-----------------------------------------------------------|
|-----------------------------------------------------------|
|-----------------------------------------------------------| Repeat
|4-44xx4-44xx4--4-44xx4-44xx4--0-00xx0-00xx0--0-00xx0-00xx0-|   2x
|4-44xx4-44xx4--4-44xx4-44xx4--0-00xx0-00xx0--0-00xx0-00xx0-|
|4-44xx4-44xx4--4-44xx4-44xx4--0-00xx0-00xx0--0-00xx0-00xx0-|

End on 
|4|
|4|
|4|

End!  This is the Rhythm Guitar that tabbed this, so it’s all right!  The other version is by the lead guitar, but he is retarded!  Ok well check out Floor 13 in Stanwood, WA!!!
            
Submit corrections

↑ Back to top | Tablatures and chords for acoustic guitar and electric guitar, ukulele, drums are parodies/interpretations of the original songs. You may use it for private study, scholarship, research or language learning purposes only