Home » U » Unsane »

Unsane - Sick Tabs

Artists:  A B C D E F G H I J K L M N O P Q R S T U V W X Y Z # 

Sick Tabs

(ver. 1) Click to play this song!
Unsane
e|-----------------------------------------------------| Intro
B|---6-6-6--2-2-2--5-5-5--4-4-4--3---------------------|
G|---9-9-9--5-5-5--8-8-8--7-7-7--6---------------------|
D|-----------------------------------------------------|
A|-----------------------------------------------------|
D|-------------------------------------------------x4--|

e|-----------------------------------------------------| Verse A
B|-----------------------------------------------------|
G|-----------------------------------------------------|
D|---3-----2--3-----2-----3-----2--3-----6\------------|
A|---3--0--2--3--0--2--0--3--0--2--3--0--6\------------|
D|---3--0--2--3--0--2--0--3--0--2--3--0--6\--------x4--|

e|-----------------------------------------------------| Verse B
B|-----------------------------------------------------|
G|---7--5-----5----------------------------------------|
D|---7--5--3--5--3--6----------------------------------|
A|---5--3--3--3--3--6----------------------------------|
D|---------3-----3--6------------------------------x4--|

e|----------------------------------------------------------------| Chorus
B|----------------------------------------------------------------|
G|---------------------------------------------------4--4---------|
D|---6--6--6--6-----6--6--6--6-----6--6--6--6--------4--4---------|
A|---6--6--6--6--0--6--6--6--6--0--6--6--6--6--0--0--2--2---------|
D|---6--6--6--6--0--6--6--6--6--0--6--6--6--6--0--0-----------x4--|
            
Submit corrections

↑ Back to top | Tablatures and chords for acoustic guitar and electric guitar, ukulele, drums are parodies/interpretations of the original songs. You may use it for private study, scholarship, research or language learning purposes only