Home » U » Unsane »

Unsane - No Chance Tabs

Artists:  A B C D E F G H I J K L M N O P Q R S T U V W X Y Z # 

No Chance Tabs

(ver. 1) Click to play this song!
Unsane
 Rating:
4/5 (4 votes)
                -----------------------------------------------------------------------------
-----------------------------------------------------------------------------

Tuning: CGCFAD

Intro:

Guitar 1

D|------|
A|------|
F|-7777-|
C|-xxxx-|Repeat
G|-5555-|
C|------|

Guitar 2 / Riff 1

D|----------------------------------------------------|
A|----------------------------------------------------|
F|----------------------------------------------------|
C|----------------------------------------------------|
G|-12--10--6-5--3-3--5-0---12--10--6-5-3-4-5-6-7--10--|
C|-12--10--6-5--3-3--5-0---12--10--6-5-3-4-5-6-7--10--|



Riff 2:

D|--------------------------------------|
A|--------------------------------------|
F|--------------------------------------|
C|--------------------------------------|
G|-5-5-5-8b--5-5-8b--5-5--10--10-10-12--|
C|-5-5-5-8b--5-5-8b--5-5--10--10-10-12--|


Riff 3:

D|--------------------------------------|
A|--------------------------------------|
F|--------------------------------------|
C|--------------------------------------|
G|-3-0-3-6--0-6-5--0-5-4--8-3-0---------|
C|-3-0-3-6--0-6-5--0-5-4--8-3-0---------|


Outro:

D|------------------------|
A|------------------------|
F|------------------------|
C|------------------------|
G|-3-0-3-6--0-6-5--0-5-4--|
C|-3-0-3-6--0-6-5--0-5-4--|

************************************

| /   slide up
| \   slide down
| h   hammer-on
| p   pull-off
| ~   vibrato
| +   harmonic
| x   Mute note
| b   Bend
| pb  Pre-bend
| br  Bend release
| pbr Pre-bend release
| brb Bend release bend

************************************
            
Submit corrections

↑ Back to top | Tablatures and chords for acoustic guitar and electric guitar, ukulele, drums are parodies/interpretations of the original songs. You may use it for private study, scholarship, research or language learning purposes only