Home » U » Unknown »

Unknown - Malagena Tabs

Artists:  A B C D E F G H I J K L M N O P Q R S T U V W X Y Z # 

Malagena Tabs

(ver. 1) Click to play this song!
Unknown

	This song is SUPER old, like 18 hundreds or something, the beginning may be unfamiliar to many but everyone associates the end of the song with el' Mexicana.  And play it acoustic or clean.

TUNING:  STANDARD
(  )= Optional Notes


...... AND OH YEAH!!!  Its disclaimer time!  This is not my work, and I take no credit for this song so on and so forth....

Rythm Guitar scale: 6/8  (Rythm chords are above every riff)

  E
---------4-----------4--------------
------------5-----------5-----------
---------------4--------------------      x2
------------------------------------
------------------------------------
--0---------------------------------
 
 Am
--------5-------------5-------------
-----------5-------------5----------
--------------5---------------------    x2
------------------------------------
------------------------------------
--0---------------------------------

  E
--------7-------------7-------------
-----------9-------------9----------
--------------9---------------------     x2
------------------------------------
------------------------------------
--0---------------------------------

 
 
--------8-------------8-------------
----------10------------10----------
------------- 9---------------------    x2
------------------------------------
------------------------------------
--0---------------------------------

*now the song gets some life*
-----0-----0-----0----0----0----0----0----0-----0----0----0----0----------
--------------2---------------2---0---3---2---0---------------------------
--0-----4-----------0----4------------------------------3----1----( 0 )---


*now here is the part everyone should be familiar with*

  E                     E                   E
--0--0--1--3--1--0------0-------------------0---------------------------------
--0---------------------0--0--1--3--1--0----0-------------------0--3--1--0------
--1---------------------1-------------------1--2--1--2--1--2---------------2--
--2---------------------2-------------------2---------------------------------
--2---------------------2-------------------2---------------------------------
--0---------------------0-------------------0---------------------------------

Repeat and/or finish on E Chord

LISTEN TO METALLICA AND HATE RAP!!!
            
Submit corrections

↑ Back to top | Tablatures and chords for acoustic guitar and electric guitar, ukulele, drums are parodies/interpretations of the original songs. You may use it for private study, scholarship, research or language learning purposes only