» » »

Unknown - Funky Advert Tabs

Artists:  A B C D E F G H I J K L M N O P Q R S T U V W X Y Z # 

Funky Advert Tabs

(ver. 1) Click to play this song!
Unknown
 Rating:
4/5 (4 votes)
                Funky Advert ;o)
Tuning - Standard/Drop D/Whatever
|------------------------------|
|------------------------------|
|------------------------------|
|------------------------------|
|-2-5-7--2-5-9-7--2-9-7-9-7-2--|
|-o-3-5--0-3-7-5--o-7-5-7-5-o--|

|------------------------------|
|------------------------------|
|------------------------------|
|------------------------------|
|-2-5-7--2-5-9-7--2-9-7-9-7-2--|
|-o-3-5--0-3-7-5--o-7-5-7-5-o--|

|------------------------------|
|------------------------------|
|------------------------------|
|------------------------------|
|-2-5-7--2-5-9-7--2-9-7-9-7-2--|
|-o-3-5--0-3-7-5--o-7-5-7-5-o--|

|------------------------------|
|------------------------------|
|------------------------------|
|------------------------------|
|-2-5-7--2-5-9-7--2-9-7-9-7-2--|
|-o-3-5--0-3-7-5--o-7-5-7-5-o--|

|------------------------------|
|------------------------------|
|------------------------------|
|------------------------------|
|-2-5-7--2-5-9-7--2-9-7-9-7-2--|
|-o-3-5--0-3-7-5--o-7-5-7-5-o--|

(Repeat until you get bored)
            
Submit corrections

↑ Back to top | Tablatures and chords for acoustic guitar and electric guitar, ukulele, drums are parodies/interpretations of the original songs. You may use it for private study, scholarship, research or language learning purposes only